Cifra Club

Aprenda

Something From Nothing

Foo Fighters

Tab de baixo: Principal
Já pensou em usar uma coleção de roupas do Cifra Club? Responda as perguntas abaixo e nos ajude nessa missão! →
Introdução: sem contrabaixo;

1º Verso (1/1): sem contrabaixo;

2º Verso (1/1):
G|---------------------------------------|
D|---------------------------------------|
A|-14----13----12----11----10--/14-\7----| 
E|---------------------------------------|


1º Refrão (1/1):
G|-------------------------------------------|
D|-------------------------------------------|
A|-------3/5-4----------3/5-4----3--/7-------| 
E|-0-2-3-------5--0-2-3-------5---------5----|


3º Verso (1/1):
G|--------------------------------------------------|
D|--------------------------57-------7--------------|
A|-7-7--7---6-6----76-5-5-57--4-4-447-7\3--/7-------| 
E|-----7-752----5h7--7---5---------------------5----|


2º Refrão (1/1):
G|------------------------------------------------------|
D|------------------------------------------------------|
A|-------3/5-4----------3/5-4----3--/7------------------| 
E|-0-2-3-------5--0-2-3-------5---------5-5-5-5-5-5-5-5-|


1º Instrumental (1/1):
G|-------------------------------------------------------------------------|
D|-------------------------------------------------------------------------|
A|-5h7--5h7--7-9-10--5h7--5h7--7-9-10--5h7--5h7--7-9-10--5h7--5h7--7-9-10--| 
E|----00---00-----------00---00-----------00---00-----------00---00--------|


4º Verso (1/2):
G|-------------------------------------------------------------------------|
D|-------------------------------------------------------------------------|
A|-5h7--5h7--7-9-10--5h7--5h7--7-9-10--5h7--5h7--7-9-10--5h7--5h7--7-9-10--| 
E|----00---00-----------00---00-----------00---00-----------00---00--------|

4º Verso (2/2):
G|----------------------------------------------------|
D|------------7----------------7----------------------|
A|-3333/7777------3333/7777--7---7\-3333/7777---------| 
E|----------5--------------5-----------------55555320-|


2º Instrumental (1/1):
G|-------------------------------------------------------------------------|
D|-------------------------------------------------------------------------|
A|-5h7--5h7--7-9-10--5h7--5h7--7-9-10--5h7--5h7--7-9-10--5h7--5h7--7-9-10--| 
E|----00---00-----------00---00-----------00---00-----------00---00--------|


5º Verso (1/2):
G|-------------------------------------------------------------------------|
D|-------------------------------------------------------------------------|
A|-5h7--5h7--7-9-10--5h7--5h7--7-9-10--5h7--5h7--7-9-10--5h7--5h7--7-9-10--| 
E|----00---00-----------00---00-----------00---00-----------00---00--------|

5º Verso (2/2):
G|-------------------------------------------------------------------------|
D|-------------------------------------------------------------------------|
A|-5h7--5h7--7-9-10--5h7--5h7--7-9-10--5h7--5h7--7-9-10--5h7--5h7--7-9-10--| 
E|----00---00-----------00---00-----------00---00-----------00---00--------|


6º Verso (1/2):
G|---------------------------------------------------------------------|
D|---------------------------------------------------------------------|
A|-5h7--5h7--7-4-5--5h7--5h7--7-4-5--5h7--5h7--7-4-5--5h7--5h7--7-4-5--| 
E|----00---00----------00---00----------00---00----------00---00-------|

6º Verso (2/2):
G|---------------------------------------------------------------------|
D|---------------------------------------------------------------------|
A|-5h7--5h7--7-4-5--5h7--5h7--7-4-5--5h7--5h7--7-4-5--5h7--5h7--7-4-5--| 
E|----00---00----------00---00----------00---00----------00---00-------|


1º Solo Guitarra (1/2):
G|------------------------------------------------------|
D|------------------------------------------------------|
A|-7-7777777777-6-5555555555-4-333333333----------------| 
E|---------------------------------------4-5555555555-5-|

1º Solo Guitarra (2/2):
G|---------------------------------------------------------|
D|---------------------------------------------------------|
A|-7-7777777777-6-5555555555-4-333333333-----------------8-| 
E|---------------------------------------4-5555555555-5/8--|


3º Refrão (1/4):
G|------------------------------------------------------|
D|------------------------------------------------------|
A|-7-7777777777-6-5555555555-4-333333333----------------| 
E|---------------------------------------4-5555555555-1-|

3º Refrão (2/4):
G|-------------------------------------------------------|
D|-------------------------------------------------------|
A|-7-7777777777-6-5555555555-4-333333333-----------------| 
E|---------------------------------------4-5555555555-1/-|

3º Refrão (3/4):
G|--------------------------------------------------------|
D|--------------------------------------------------------|
A|-7--7--7—7/11\5--5--5--5h7-4-3--3--3--1-0—0---0--0------| 
E|--00-00-00-----00-00-00-------00-00-00---00-00-00-001-/-|

3º Refrão (4/4):
G|------------------------------------------------|
D|------------------------------------------------|
A|-7--7--7—7/11\5--5--5--5h7-4-3--3--3--1-0—0-0-0-| 
E|--00-00-00-----00-00-00-------00-00-00---0-0----|


3º Instrumental (1/2):
G|-------------------------------------------------------------------------|
D|-------------------------------------------------------------------------|
A|-5h7--5h7--7-9-10--5h7--5h7--7-9-10--5h7--5h7--7-9-10--5h7--5h7--7-9-10--| 
E|----00---00-----------00---00-----------00---00-----------00---00--------|

3º Instrumental (2/2):
G|---------------------------------------------------------------------|
D|---------------------------------------------------------------------|
A|-5h7--5h7--7-2-3--5h7--5h7--7-2-3--5h7--5h7--7-2-3--5h7--5h7--7-2-3--| 
E|----00---00----------00---00----------00---00----------00---00-------|


Refrão Final (1/2):
G|---------------------------------------------------------------------|
D|---------------------------------------------------------------------|
A|-5h7--5h7--0-2-3--5h7--5h7--0-2-3--5h7--5h7--0-2-3--5h7--5h7--0-2-3--| 
E|----00---00----------00---00----------00---00----------00---00-------|

Refrão Final (2/2):
G|---------------------------------------------------------------------|
D|---------------------------------------------------------------------|
A|-5h7--5h7--0-2-3--5h7--5h7--0-2-3--5h7--5h7--0-2-3--5h7--5h7--0-2-3--| 
E|----00---00----------00---00----------00---00----------00---00-------|


Final (1/1):
G|--------------|
D|--------------|
A|-------5-4----| 
E|-0-2-3--------|
Composição de Dave Grohl
Colaboração e revisão:
  • Paulo Richa
1.259 exibições

0 comentários

Ver todos os comentários
00:00 / 00:00
Outros vídeos desta música
Repetir Qualidade Automático
Outros vídeos desta música
00:00 / 00:00
Automático

Cifra Club Pro

Aproveite o Cifra Club com benefícios exclusivos e sem anúncios
Cifra Club Pro
Aproveite o Cifra Club com benefícios exclusivos e sem anúncios
OK