Cifra Club

Stranger Things Have Happened

Foo Fighters

Cifra: Principal (violão e guitarra)
Tom: A
[Intro]

      Bm                     F#m
E|---------------------------------------------|
B|---------------------------------------------|
G|-------2----2--2-----------------------------|
D|-------0----0--2-----------0----0--0---------|
A|--2-2-----2-------0--------0----0--2---------|
E|--------------------2---2-----2-------1--0---|

     E
E|--------------------------------------------|
B|--------------------------------------------|
G|---2---2--2-----2---2---2--2----------------|
D|---0---0--2-----0---0---0--2------0---------|
A|------------------------------0h2-----------|
E|0----0--------0---0---0---------------------|

[Primeira Parte]

      Bm                     F#m
E|---------------------------------------------|
B|---------------------------------------------|
G|-------2----2--2-----------------------------|
D|-------0----0--2-----------0----0--0---------|
A|--2-2-----2-------0--------0----0--2---------|
E|--------------------2---2-----2-------1--0---|

     E
E|--------------------------------------------|
B|--------------------------------------------|
G|---2---2--2-----2---2---2--2----------------|
D|---0---0--2-----0---0---0--2------0---------|
A|------------------------------0h2-----------|
E|0----0--------0---0---0---------------------|

God damn this dusty room
This hazy afternoon
I'm breathing in this silence
Like never before
This feeling that I get
This one last cigarette
As I lay awake and wait for you
To come through the door
Oh maybe, maybe, maybe
I can share it with you
I behave, I behave, I behave
So I can share it with you

[Refrão]

         Bm             F#m
You are not alone dear loneliness
        G            E
You forgot, but I remembered this
      D                   F#m
Oh stranger, stranger, stranger
                     F   E  Esus4  E
Things have happened I know
      Bm             F#m
I am not alone dear loneliness
      G            E
I forgot that I remembered this
      D                   F#m
Oh stranger, stranger, stranger
                     F   E  Esus4  E
Things have happened I know

[Solo 1]

E|--------------------------------------------0-------|
B|-----10~------10-10/12~------10------9--------------|
G|---7--------7--------------7-----7------7-----------|
D|-9--------9--------------9---------9------9---------|
A|----------------------------------------------------|
E|----------------------------------------------------|

E|---------------------------------------------------------7-|
B|-----10~------10-10/12~------10------9------9b10r9p7-10----|
G|---7--------7--------------7-----7------7------------------|
D|-9--------9--------------9---------9------9----------------|
A|-----------------------------------------------------------|
E|-----------------------------------------------------------|

[Segunda Parte]

      Bm                     F#m
E|---------------------------------------------|
B|---------------------------------------------|
G|-------2----2--2-----------------------------|
D|-------0----0--2-----------0----0--0---------|
A|--2-2-----2-------0--------0----0--2---------|
E|--------------------2---2-----2-------1--0---|

     E
E|--------------------------------------------|
B|--------------------------------------------|
G|---2---2--2-----2---2---2--2----------------|
D|---0---0--2-----0---0---0--2------0---------|
A|------------------------------0h2-----------|
E|0----0--------0---0---0---------------------|

We'll dream about somewhere
Our smoke will fill the air
As I lay awake and wait for you
To walk out that door
I can change, I can change
I can change, but who you want me to be
I'm the same, I'm the same
I'm the same, what do you want me to be

[Refrão]

         Bm             F#m
You are not alone dear loneliness
        G            E
You forgot, but I remembered this
      D                   F#m
Oh stranger, stranger, stranger
                     F   E  Esus4  E
Things have happened I know
      Bm             F#m
I am not alone dear loneliness
      G            E
I forgot that I remembered this
      D                   F#m
Oh stranger, stranger, stranger
                     F   E  Esus4  E
Things have happened I know

[Solo 2]

[Refrão]

         Bm             F#m
You are not alone dear loneliness
        G            E
You forgot, but I remembered this
         Bm             F#m
You are not alone dear loneliness
        G            E
You forgot, but I remembered this
      D                   F#m
Oh stranger, stranger, stranger
                     F   E  Esus4  E
Things have happened I know
      Bm             F#m
I am not alone dear loneliness
      G            E
I forgot that I remembered this
      D                   F#m
Oh stranger, stranger, stranger
                     F   E  Esus4  E
Things have happened I know

[Final]

Guitarra 1

      Bm                     F#m
E|---------------------------------------------|
B|---------------------------------------------|
G|-------2----2--2-----------------------------|
D|-------0----0--2-----------0----0--0---------|
A|--2-2-----2-------0--------0----0--2---------|
E|--------------------2---2-----2-------1--0---|

     E
E|--------------------------------------------|
B|--------------------------------------------|
G|---2---2--2-----2---2---2--2----------------|
D|---0---0--2-----0---0---0--2------0---------|
A|------------------------------0h2-----------|
E|0----0--------0---0---0---------------------|

Guitarra 2

E|--------------------------------------------0-------|
B|-----10~------10-10/12~------10------9--------------|
G|---7--------7--------------7-----7------7-----------|
D|-9--------9--------------9---------9------9---------|
A|----------------------------------------------------|
E|----------------------------------------------------|

E|---------------------------------------------------------7-|
B|-----10~------10-10/12~------10------9------9b10r9p7-10----|
G|---7--------7--------------7-----7------7------------------|
D|-9--------9--------------9---------9------9----------------|
A|-----------------------------------------------------------|
E|-----------------------------------------------------------|
exibições 79.742
Acordes para:

    0 comentários

    mostrar mais comentários

    Conseguiu tocar?

    16 tocaram 0 ainda não

    Grave um vídeo tocando Stranger Things Have Happened e mande pra gente!

    00:00 / 00:00
    outros vídeos desta música
    repetir qualidade Automático
    Outros vídeos desta música
    00:00 / 00:00
    Automático
    OK