Cifra Club

Aprenda

The Pretender

Foo Fighters

Tab de baixo: Principal
Intro.Guitarra 

Keep you in the dark you know they all pretend 

Primeira parte

Send in your skeletons... 

Parte 1

G|--------------------------------------------|
D|--------------------------------------------|
A|-0-0--0-0-0-0--0-0--0-0-0-0-----------------|
E|--------------------------------------------|

Parte 2

G|--------------------------------------------|
D|--------------------------------------------|
A|--------------------------------------------|
E|-2-2--2-2-2-2--1-1--1-1-1-1-----------------|

Parte 3

G|--------------------------------------------|
D|--------------------------------------------|
A|-0-0--0-0-0-0--0-0--0-0-0-0-----------------|
E|--------------------------------------------|

Parte 4

G|--------------------------------------------|
D|--------------------------------------------|
A|--------------------------------------------|
E|-2-2--2-2-2-2--1-1--1-1-1-1--1-0--3---------|

Segunda parte

I'm finished making sense... 

Parte 1

G|--------------------------------------------|
D|--------------------------------------------|
A|-0-0--0-0-0-0--0-0--0-0-0-0-----------------|
E|-----------------------------8\-------------|

Parte 2

G|--------------------------------------------|
D|--------------------------------------------|
A|--------------------------------------------|
E|-2-2—-2-2-2-2--2-2-5\-1-1--1-1-1-1--1-0--3--|

Parte 3

G|--------------------------------------------|
D|--------------------------------------------|
A|--------------------------------------------|
E|-5-5-5-5-5-5-5-5--5-5-5-5-5-5-5-5-----------|

Parte 4

G|--------------------------------------------|
D|--------------------------------------------|
A|--------------------------------------------|
E|-5-5-5-5-5-5-5-5--5-5-5-5-5-5-5-5-----------|

Parte 5

G|--------------------------------------------|
D|--------------------------------------------|
A|--------------------------------------------|
E|-2-2-2-2-2-2-2-2--2-2-2-2-2-2-2-2-----------|

Parte 6

G|--------------------------------------------|
D|--------------------------------------------|
A|--------------------------------------------|
E|-1-1-1-1-1-1-1-1--1-1-1-1--1-1-3------------|

Parte 7

G|--------------------------------------------|
D|--------------------------------------------|
A|-5-5-5-5--7-7-7-7--9-9-9-9--10-10-10-10-----|
E|--------------------------------------------|

Refrão ( Tocar 2x )

What if I say I'm not like the others? 

Parte 1

G|--------------------------------------------|
D|--------------------------------------------|
A|-0-0-0-0-0-0-0-0--0-0-0-0-0-0-0-0-----------|
E|--------------------------------------------|

Parte 2

G|--------------------------------------------|
D|--------------------------------------------|
A|-0-0-2-2-2-2-3-3-3-3-0-0-0-0----------------|
E|--------------------------------------------|

Parte 3

G|--------------------------------------------|
D|--------------------------------------------|
A|-5\9-9-9-9-9-9-9-9-9-9-9-7h9-9-9-9-9-9-9-9--|
E|--------------------------------------------|

Parte 4

G|--------------------------------------------|
D|--------------------------------------------|
A|-8-8-8-8-8-8-8-8-7h8-8-8-8-8-8-8-8----------|
E|--------------------------------------------|

Terceira parte

In time or so I'm told...

Parte 1

G|--------------------------------------------|
D|--------------------------------------------|
A|-5\12/-0-0--0-0-0-0--0-0--0-0-0-0-----------|
E|--------------------------------------------|

Parte 2

G|--------------------------------------------|
D|--------------------------------------------|
A|--------------------------------------------|
E|-2-2—-2-2-2-2--2-2-5\-1-1--1-1-1-1--1-0--3--|

Parte 3

G|--------------------------------------------|
D|--------------------------------------------|
A|--------------------------------------------|
E|-5-5-5-5-5-5-5-5--5-5-5-5-5-5-5-5-----------|

Parte 4

G|--------------------------------------------|
D|--------------------------------------------|
A|--------------------------------------------|
E|-5-5-5-5-5-5-5-5--5-5-5-5-5-5-5-5-----------|

Parte 5

G|--------------------------------------------|
D|--------------------------------------------|
A|--------------------------------------------|
E|-2-2-2-2-2-2-2-2--2-2-2-2-2-2-2-2-----------|

Parte 6

G|--------------------------------------------|
D|--------------------------------------------|
A|--------------------------------------------|
E|-1-1-1-1-1-1-1-1--1-1-1-1--1-1-3------------|

Parte 7

G|--------------------------------------------|
D|--------------------------------------------|
A|-5-5-5-5--7-7-7-7--9-9-9-9--10-10-10-10-----|
E|--------------------------------------------|

Segundo Refrão 

What if I say I'm not like the others? 

Parte 1

G|--------------------------------------------|
D|--------------------------------------------|
A|-0-0-0-0-0-0-0-0--0-0-0-0-0-0-0-0-----------|
E|--------------------------------------------|

Parte 2

G|--------------------------------------------|
D|--------------------------------------------|
A|-0-0-2-2-2-2-3-3-3-3-0-0-0-0----------------|
E|--------------------------------------------|

Parte 3

G|--------------------------------------------|
D|--------------------------------------------|
A|-5\9--9-9-9-9-9-9-9--7h9-9-9-9-9-9-9-9------|
E|--------------------------------------------|

Parte 4

G|--------------------------------------------|
D|--------------------------------------------|
A|-8-8-8-8-8-8-8---7h8-8-8-8-8-8-8-8----------|
E|--------------------------------------------|

Parte 5

G|--------------------------------------------|
D|--------------------------------------------|
A|-0-0-0-0-0-0-0-0--0-0-0-0-0-0-0-0-----------|
E|--------------------------------------------|

Parte 6

G|--------------------------------------------|
D|--------------------------------------------|
A|-0-0-2-2-2-2-3-3-3-3-0-0-0-0----------------|
E|--------------------------------------------|

Parte 7

G|--------------------------------------------|
D|--------------------------------------------|
A|-5\9--9-9-9-9-9-9-9--7h9-9-9-9-9-9-9-9------|
E|--------------------------------------------|

Parte 8

G|--------------------------------------------|
D|--------------------------------------------|
A|-8-8-8-8-8-8-8---7h8-8-8-8-8-8-8-8----------|
E|--------------------------------------------|

Parte 9

G|--------------------------------------------|
D|--------------------------------------------|
A|-5-5-5-5--7-7-7-7--9-9-9-9--10-10-10-10-----|
E|--------------------------------------------|

Quarta parte 

I'm the voice inside your head, you refuse... 

Parte 1

G|--------------------------------------------|
D|--------------------------------------------|
A|-12/----------------------------------------|
E|------5-5-5-5--5-5-5-5--5-5-5-5--5-5-5-5----|

Parte 2 ( Tocar 4X )

G|--------------------------------------------|
D|--------------------------------------------|
A|--------------------------------------------|
E|-5-5-5-5-5-5-5-5--5-5-5-5-5-5-5-5-----------|

Parte 3

G|--------------------------------------------|
D|--------------------------------------------|
A|--------------------------------------------|
E|-5-5-5-5-5-5-5-3--5-5-5-5-5-5-5-3-----------|

Parte 4

G|--------------------------------------------|
D|--------------------------------------------|
A|--------------------------------------------|
E|-5-5-5-5-5-5-5-3--5-5-5-5-5-5-5-3-----------|

Parte 5

G|--------------------------------------------|
D|--------------------------------------------|
A|------4-4-5------------4-4-5----------------|
E|-5-5---------5-3-5-5-5-------5-3-5----------|

Parte 6
                                   .
G|--------------------------------------------|
D|--------------------------------------------|
A|------4-4-5------------4-4-5----------------|
E|-5-5---------5-3-5-5-5-------5-3-5----------|

Terceiro Refrão( Tocar 2x )

What if I say I'm not like the others? 

Parte 1

G|--------------------------------------------|
D|--------------------------------------------|
A|--------------------------------------------|
E|-5-5-5-5-5-5-5-5--5-5-5-5-5-5-3-3-----------|

Parte 2

G|--------------------------------------------|
D|--------------------------------------------|
A|-----2-2-2-2-3-3-3-3-0-0-0-0----------------|
E|-5-5----------------------------------------|

Parte 3

G|--------------------------------------------|
D|--------------------------------------------|
A|-5\9--9-9-9-9-9-9-9--7h9-9-9-9-9-9-9-9------|
E|--------------------------------------------|

Parte 4

G|--------------------------------------------|
D|--------------------------------------------|
A|-8-8-8-8-8-8-8---7h8-8-8-8-8-8-8-8----------|
E|--------------------------------------------|

Parte 5

G|--------------------------------------------|
D|--------------------------------------------|
A|--------------------------------------------|
E|-5-5-5-5-5-5-5-5--5-5-5-5-5-5-3-3-----------|

Parte 6

G|--------------------------------------------|
D|--------------------------------------------|
A|-----2-2-2-2-3-3-3-3-0-0-0-0----------------|
E|-5-5----------------------------------------|

Parte 7

G|--------------------------------------------|
D|--------------------------------------------|
A|-5\9-9-9-9-9-9-9-9-9-7h9-9-9-9-9-9-9-9------|
E|--------------------------------------------|

Parte 8

G|--------------------------------------------|
D|--------------------------------------------|
A|-8-8-8-8-8-8-8-8-7h8-8-8-8-8-8-8-8----------|
E|--------------------------------------------|

Parte 9(tab de passagem)

G|--------------------------------------------|
D|--------------------------------------------|
A|-5-5-5-5--7-7-7-7--9-9-9-9--10-10-10-10-----|
E|--------------------------------------------|

Quinta parte Final

So, who are you?...

Parte 1

G|--------------------------------------------|
D|--------------------------------------------|
A|-0-0-0-0-0-0-0----0--0-0-0-0-0-0-0----------|
E|--------------------------------------------|

Parte 2

G|--------------------------------------------|
D|--------------------------------------------|
A|-0-0-0-0-0-0-0----0--0-0-0-0-0-0-0----------|
E|--------------------------------------------|

Parte 3

G|--------------------------------------------|
D|--------------------------------------------|
A|-----4-4-5----------4-4-5-------------------|
E|-5-5------5-3--5-5-5-----5-3-5-5-5--5-5-5-5-|
Composição de Chris Shiflett / Dave Grohl / Nate Mendel / Taylor Hawkins
Colaboração e revisão:
  • Reginaldo Costa
31.359 exibições

0 comentários

Ver todos os comentários
00:00 / 00:00
outros vídeos desta música
repetir qualidade Automático
Outros vídeos desta música
00:00 / 00:00
Automático
Capítulos
  • Tocando a Música
  • Apresentação
  • Tocando Primeira Parte
  • Ensinando Primeira Parte
  • Tocando Segunda Parte
  • Ensinando Segunda Parte
  • Tocando Refrão
  • Ensinando Refrão
  • Tocando Terceira Parte
  • Ensinando Terceira Parte
  • Tocando Segundo Refrão
  • Ensinando Segundo Refrão
  • Tocando Quarta Parte
  • Ensinando Quarta Parte
  • Tocando Quinta Parte
  • Ensinando Quinta Parte
  • Encerramento
  • Erros de Gravação

Cifra Club Pro

Aproveite o Cifra Club com benefícios exclusivos e sem anúncios
Cifra Club Pro
Aproveite o Cifra Club com benefícios exclusivos e sem anúncios
OK