Cifra Club

These Days

Foo Fighters

Cifra: Principal (violão e guitarra)
exibições 107.608
Tom: G
[Intro]

E|-------------------------------------------------------------|
B|-------------------------------------------------------------|
G|-------------------------------------------------------------|
D|---------11------------11----------0-------------0-----------|
A|----0-----------0------------12----------12------------------|
E|------12----12-----12-----12----12---12------12----12--------|

[Primeira Parte]

E|-------------------------------------------------------------|
B|-------------------------------------------------------------|
G|-------------------------------------------------------------|
D|---------11------------11----------0-------------0-----------|
A|----0-----------0------------12----------12------------------|
E|------12----12-----12-----12----12---12------12----12--------|

One of these days the ground
Will drop out from beneath your feet
One of these days your heart
Will stop and play its final beat
One of these days the clocks
Will stop and time won't mean a thing
One of these days their bombs
Will drop and silence everything

[Pré-Refrão]

E|-------------------------------------------------------------|
B|-------------------------------------------------------------|
G|-------------0-----------------------------------------------|
D|-------2--------2-----2-----------0--------------------------|
A|----3-----3--------3--------2--------2-----2-----------------|
E|-------------------------3-----3--------3--------------------|

E|-------------------------------------------------------------|
B|-------------------------------------------------------------|
G|-------------0-----------------------------------------------|
D|-------4--------4-----4-----------0--------------------------|
A|----5-----5--------5--------4--------4-----4-----------------|
E|-------------------------5-----5--------5--------------------|

E|-------------------------3-----------------------------------|
B|-------------------------3-----------------------------------|
G|-------------0-----------0-----------------------------------|
D|-------2--------2-----2--0-----------------------------------|
A|----3-----3--------3-----2-----------------------------------|
E|-------------------------3-----------------------------------|

C          G
  But it's alright
D          A
  Yet it's alright
C             G
  I said it's alright

[Refrão]

                 A5
Easy for you to say
                              E5
Your heart has never been broken
                            C5
Your pride has never been stolen
             D5
Not yet not yet

              A5
One of these days
                           E5
I bet your heart'll be broken
                         C5
I bet your pride'll be stolen
               D5
I'll bet i'll bet i'll bet i'll bet

         A        A4/E
One of these days
         A        A4/E
One of these days

[Segunda Parte]

E|-------------------------------------------------------------|
B|-------------------------------------------------------------|
G|-------------------------------------------------------------|
D|---------11------------11----------0-------------0-----------|
A|----0-----------0------------12----------12------------------|
E|------12----12-----12-----12----12---12------12----12--------|

One of these days your eyes
Will close and pray you'll disappear
One of these days you
Will forget to hope and learn to fear

[Pré-Refrão]

E|-------------------------------------------------------------|
B|-------------------------------------------------------------|
G|-------------0-----------------------------------------------|
D|-------2--------2-----2-----------0--------------------------|
A|----3-----3--------3--------2--------2-----2-----------------|
E|-------------------------3-----3--------3--------------------|

E|-------------------------------------------------------------|
B|-------------------------------------------------------------|
G|-------------0-----------------------------------------------|
D|-------4--------4-----4-----------0--------------------------|
A|----5-----5--------5--------4--------4-----4-----------------|
E|-------------------------5-----5--------5--------------------|

E|-------------------------3-----------------------------------|
B|-------------------------3-----------------------------------|
G|-------------0-----------0-----------------------------------|
D|-------2--------2-----2--0-----------------------------------|
A|----3-----3--------3-----2-----------------------------------|
E|-------------------------3-----------------------------------|

C          G
  But it's alright
D          A
  Yet it's alright
C             G
  I said it's alright

[Refrão]

                 A5
Easy for you to say
                              E5
Your heart has never been broken
                            C5
Your pride has never been stolen
             D5
Not yet not yet

              A5
One of these days
                           E5
I bet your heart'll be broken
                         C5
I bet your pride'll be stolen
               D5
I'll bet i'll bet i'll bet i'll bet

         A5       A4/E
One of these days
         A5       A4/E
One of these days

C5         G5
  But it's alright
D5         A5
  Yet it's alright
C5            G5
  I said it's alright
D5         A5
  Yet it's alright

C5               G5
  Don't say it's alright
D5               A5
  Don't say it's alright
C5               G5
  Don't say it's alright

E|-------------------------------------------------------------|
B|-------------------------------------------------------------|
G|-------------------------------------------------------------|
D|---------11------------11----------0-------------0-----------|
A|----0-----------0------------12----------12------------------|
E|------12----12-----12-----12----12---12------12----12--------|

One of these days your heart
Will stop and play it's final beat
C
 But it's alright

[Refrão]

                 A5
Easy for you to say
                              E5
Your heart has never been broken
                            C5
Your pride has never been stolen
             D5
Not yet not yet

              A5
One of these days
                           E5
I bet your heart'll be broken
                         C5
I bet your pride'll be stolen
               D5
I'll bet i'll bet i'll bet i'll bet

         A        A4/E
One of these days
         A        A4/E
One of these days
         A        A4/E
One of these days


[Final]  A5  D5  A5

E|--0-0-0-0-0-0-0-0--0--0--0--0--0--0--0--0-0-0-0-0-0-0-0-0-----|
B|--5-5-5-5-5-5-5-5/10-10-10-10-10-10-10-10/5-5-5-5-5-5-0-3~----|
G|--------------------------------------------------------------|
D|--------------------------------------------------------------|
A|--------------------------------------------------------------|
E|--------------------------------------------------------------|

0 comentários

    mostrar mais comentários

    Conseguiu tocar?

    45tocaram1ainda não

    Grave um vídeo tocando These Days e mande pra gente!

    00:00 / 00:00
    outros vídeos desta música
    repetirqualidadeAutomático
    Outro vídeos desta música
      00:00 / 00:00
      OK