Notificações Amigos pendentes

      Foo Fighters

      These Days

      86.927 exibições
      Tom: G
      Dedilhado:
      
      
      E|-------------------------------------------------------------|
      B|-------------------------------------------------------------|
      G|-------------------------------------------------------------|
      D|---------11------------11----------0-------------0-----------|
      A|----0-----------0------------12----------12------------------|
      E|------12----12-----12-----12----12---12------12----12--------|
      
      
      E|-------------------------------------------------------------|
      B|-------------------------------------------------------------|
      G|-------------0-----------------------------------------------|
      D|-------2--------2-----2-----------0--------------------------|
      A|----3-----3--------3--------2--------2-----2-----------------|
      E|-------------------------3-----3--------3--------------------|
      
      
      E|-------------------------------------------------------------|
      B|-------------------------------------------------------------|
      G|-------------0-----------------------------------------------|
      D|-------4--------4-----4-----------0--------------------------|
      A|----5-----5--------5--------4--------4-----4-----------------|
      E|-------------------------5-----5--------5--------------------|
      
      
      E|-------------------------3-----------------------------------|
      B|-------------------------3-----------------------------------|
      G|-------------0-----------0-----------------------------------|
      D|-------2--------2-----2--0-----------------------------------|
      A|----3-----3--------3-----2-----------------------------------|
      E|-------------------------3-----------------------------------|
      
      
      Verso:
      One of these days the ground will drop out from beneath your feet
      One of these days your heart will stop and play its final beat
      One of these days the clocks will stop and time won't mean a thing
      One of these days their bombs will drop and silence everything
      
      C          G
        But it's alright
      D          A
        Yet it's alright
      C                  G
        I said it's alright
      
                        A5
        Easy for you to say
                                  E5
        Your heart has never been broken
                                   C5
        Your pride has never been stolen
                    D5
        Not yet not yet
      
                     A5
        One of these days
                             E5
        I bet your heart'll be broken
                             C5
        I bet your pride'll be stolen
                       D5
        I'll bet i'll bet i'll bet i'll bet
      
               A          A4/E
        One of these days
               A          A4/E
        One of these days
      
      Dedilhado:
      One of these days your eyes will close and pray you'll disappear
      One of these days you will forget to hope and learn to fear
      
      C          G
        But it's alright
      D          A
        Yet it's alright
      C                  G
        I said it's alright
      
                        A5
        Easy for you to say
                                  E5
        Your heart has never been broken
                                   C5
        Your pride has never been stolen
                    D5
        Not yet not yet
      
                     A5
        One of these days
                             E5
        I bet your heart'll be broken
                             C5
        I bet your pride'll be stolen
                       D5
        I'll bet i'll bet i'll bet i'll bet
      
               A5         A4/E
        One of these days
               A5         A4/E
        One of these days
      
      C5         G5
        But it's alright
      D5         A5
        Yet it's alright
      C5            G5
        I said it's alright
      D5         A5
        Yet it's alright
      
      C5               G5
        Don't say it's alright
      D5               A5
        Don't say it's alright
      C5               G5
        Don't say it's alright
      
      Dedilhado:
      One of these days your heart will stop and play it's final beat
      But it's alright
      
                       A5
        Easy for you to say
                                  E5
        Your heart has never been broken
                                   C5
        Your pride has never been stolen
                    D5
        Not yet not yet
      
                A5
        One of these days
                             E5
        I bet your heart'll be broken
                             C5
        I bet your pride'll be stolen
                       D5
        I'll bet I'll bet I'll bet I'll bet
      
               A          A4/E
        One of these days
               A          A4/E
        One of these days
               A          A4/E  A  D5
        One of these days
      
      
      Final
      
      E|--0-0-0-0-0-0-0-0--0--0--0--0--0--0--0--0-0-0-0-0-0-0-0-0-----|
      B|--5-5-5-5-5-5-5-5/10-10-10-10-10-10-10-10/5-5-5-5-5-5-0-3~----|
      G|--------------------------------------------------------------|
      D|--------------------------------------------------------------|
      A|--------------------------------------------------------------|
      E|--------------------------------------------------------------|
      
        Composição: Foo FightersColaboração e revisão:
        • Higor
        • Pedro
        • _gabrielsassh
        • mintparamore
        • +7

        Comentários 18

        140 .
        • erick erick: Em 23/05/2016 01:24

          façam uma video aula dessa música, já chega de só colocarem aulas de sertanejo por favor

        • lucas_adriano lucas_adriano: Em 06/06/2014 19:08

          É Facil, mas acho q merece uma Video Aula

        • guzao.opalmeirense.5 guzao.opalmeirense.5: Em 03/07/2013 22:06

          poe video aula !!!!

        • Mateus Mateus : Em 20/06/2013 16:27

          facinho :)

        • lucaofdd lucaofdd: Em 04/03/2013 22:24

          Videeoooo aulaa poor favooor!!

        • dieselgol dieselgol: Em 16/01/2013 14:53

          No inicio lá toquem (na ordem que esta lá) 0 12 11 12 0 12 11 12 0 12 12 12 0 12 12 12

        • paulinho28 paulinho28: Em 06/09/2012 21:39

          Essa merece um video aula.

        • renan.miranda renan.miranda: Em 29/07/2012 23:08

          Arruma a tab e poe video aula plz

        • marceloblitzz marceloblitzz: Em 23/05/2012 12:43

          Fui eu que arrumei a tab *-*

        • errera errera: Em 11/05/2012 11:59

          Ta horrivel o solo todo errado e imcompleto

        140 cancelar

        conseguiu tocar?

        • •••

        covers

        Grave um vídeo tocando These Days e mande pra gente!

        Ex.: http://www.youtube.com/watch?v=0IvSvIwGdwk
        ver covers de outras músicas »
        0:00 / 0:00

        Capítulos

          1 versão de Guitar Proformatodownloadscontribuição
          play/pausefechar subir/descer velocidade
          6ª corda E5ª corda A4ª corda D3ª corda G2ª corda B1ª corda E
            acordes
            publicidade
            fechar
            ok