Cifra Club

These Days

Foo Fighters

Cifra: Principal
exibições 98.036
Tom: G
Dedilhado:

E|-------------------------------------------------------------|
B|-------------------------------------------------------------|
G|-------------------------------------------------------------|
D|---------11------------11----------0-------------0-----------|
A|----0-----------0------------12----------12------------------|
E|------12----12-----12-----12----12---12------12----12--------|

E|-------------------------------------------------------------|
B|-------------------------------------------------------------|
G|-------------0-----------------------------------------------|
D|-------2--------2-----2-----------0--------------------------|
A|----3-----3--------3--------2--------2-----2-----------------|
E|-------------------------3-----3--------3--------------------|

E|-------------------------------------------------------------|
B|-------------------------------------------------------------|
G|-------------0-----------------------------------------------|
D|-------4--------4-----4-----------0--------------------------|
A|----5-----5--------5--------4--------4-----4-----------------|
E|-------------------------5-----5--------5--------------------|

E|-------------------------3-----------------------------------|
B|-------------------------3-----------------------------------|
G|-------------0-----------0-----------------------------------|
D|-------2--------2-----2--0-----------------------------------|
A|----3-----3--------3-----2-----------------------------------|
E|-------------------------3-----------------------------------|

Verso:
One of these days the ground will drop out from beneath your feet
One of these days your heart will stop and play its final beat
One of these days the clocks will stop and time won't mean a thing
One of these days their bombs will drop and silence everything

C          G
  But it's alright
D          A
  Yet it's alright
C                  G
  I said it's alright

                  A5
  Easy for you to say
                            E5
  Your heart has never been broken
                             C5
  Your pride has never been stolen
              D5
  Not yet not yet

               A5
  One of these days
                       E5
  I bet your heart'll be broken
                       C5
  I bet your pride'll be stolen
                 D5
  I'll bet i'll bet i'll bet i'll bet

         A          A4/E
  One of these days
         A          A4/E
  One of these days

Dedilhado:
One of these days your eyes will close and pray you'll disappear
One of these days you will forget to hope and learn to fear

C          G
  But it's alright
D          A
  Yet it's alright
C                  G
  I said it's alright

                  A5
  Easy for you to say
                            E5
  Your heart has never been broken
                             C5
  Your pride has never been stolen
              D5
  Not yet not yet

               A5
  One of these days
                       E5
  I bet your heart'll be broken
                       C5
  I bet your pride'll be stolen
                 D5
  I'll bet i'll bet i'll bet i'll bet

         A5         A4/E
  One of these days
         A5         A4/E
  One of these days

C5         G5
  But it's alright
D5         A5
  Yet it's alright
C5            G5
  I said it's alright
D5         A5
  Yet it's alright

C5               G5
  Don't say it's alright
D5               A5
  Don't say it's alright
C5               G5
  Don't say it's alright

Dedilhado:
One of these days your heart will stop and play it's final beat
But it's alright

                 A5
  Easy for you to say
                            E5
  Your heart has never been broken
                             C5
  Your pride has never been stolen
              D5
  Not yet not yet

          A5
  One of these days
                       E5
  I bet your heart'll be broken
                       C5
  I bet your pride'll be stolen
                 D5
  I'll bet I'll bet I'll bet I'll bet

         A          A4/E
  One of these days
         A          A4/E
  One of these days
         A          A4/E  A  D5
  One of these days


Final
E|--0-0-0-0-0-0-0-0--0--0--0--0--0--0--0--0-0-0-0-0-0-0-0-0-----|
B|--5-5-5-5-5-5-5-5/10-10-10-10-10-10-10-10/5-5-5-5-5-5-0-3~----|
G|--------------------------------------------------------------|
D|--------------------------------------------------------------|
A|--------------------------------------------------------------|
E|--------------------------------------------------------------|

0 comentários

    mostrar mais comentários

    Conseguiu tocar?

    43tocaram0ainda não

    Grave um vídeo tocando These Days e mande pra gente!

    00:00 / 00:00
    outros vídeos desta música
    repetirqualidadeautomática
    Outro vídeos desta música
      00:00 / 00:00
      automática
      OK