Cifra Club

Up In Arms

Foo Fighters

Cifra: Principal (violão e guitarra)
tom: C
(Normal Tuning)


Verse
e||--3---3---0---3---1---4---3--||
B||--1---1---1---3---1---4---1--||
G||--0---0---2---0---2---5---0--||
D||--2---x---2---0---3---6---2--||
A||--3---2---0---2---3---6---3--||
E||--------------3---1---4------||


Chorus
e||--1---4---3-----0-----1-----4-----3--||
B||--1---4---1-----1-----1-----4-----1--||
G||--2---5---0-----2-----4-----5-----0--||
D||--3---6---2-----2-----3-----6-----2--||
A||--3---6---3-----0-----3-----6-----3--||
E||--1---4---------------1-----4--------||


Solo
e||-----------------------------------------------------------------|
B||-----------------------------------------------------------------|
G||--9--7----------------7-------------------9--9--9--9--9--9--9--9-|
D||--------7--10--7--10-----10--7--10--7----------------------------|
A||---------------------------------------10------------------------|
E||-----------------------------------------------------------------|

e|-----------------------------------------------------------------||
B|----8---------------------------------------5--5--5--5--5--5--5--||
G|-9-----9p7--------------7-------------------5--5--5--5--5--5--5--||
D|-------------10--7--10-----10--7--10--7--5--5--5--5--5--5--5--5--||
A|-----------------------------------------------------------------||
E|-----------------------------------------------------------------||
00:00 / 00:00
Outros vídeos desta música
Repetir
Outros vídeos desta música
Composição de Foo Fighters
16.491 exibições
    • ½ Tom
    • A
    • Bb
    • B
    • C
    • Db
    • D
    • Eb
    • E
    • F
    • F#
    • G
    • Ab
  • Adicionar à lista

    0 comentários

    Ver todos os comentários

    Entre para oCifra Club PRO

    Tenha acesso a benefícios exclusivos no App e no Site

    • Chega de anúncios

    • Prioridade de compra em lançamentos

    • Mais recursos no app do Afinador

    • Atendimento Prioritário

    • Descontos nos produtos Cifra Club

    • Ajude a produzir mais conteúdo

    00:00 / 00:00

    Cifra Club Pro

    Aproveite o Cifra Club com benefícios exclusivos e sem anúncios
    Cifra Club Pro
    Aproveite o Cifra Club com benefícios exclusivos e sem anúncios
    OK