Cifra Club

Walking After You

Foo Fighters

Cifra: Principal (violão e guitarra)
Tom: E
[Intro]  E

E|---0---2---4---0---5---4---2---0---4---|
B|-----0---0---0---0---0---0---0---0-----|
G|---1---2---4---1---6---4---2---1---4---|
D|---------------------------------------|
A|---------------------------------------|
E|---------------------------------------|

E         E/G#                A5             Bbº  A5
  Tonight i'm tangled in my blanket of clouds
  B7           E
Dreaming aloud
                   E/G#           A5           Bbº
Things just won't do without you matter of fact
      A5  B7           E
Oh oh ohh,I'm on your back
E/G#             A5  Bbº     A5
I'm on your back,      Oh oh ohh
B7           E
I'm on your back

E|---0---2---4---0---5---4---2---0---4---|
B|-----0---0---0---0---0---0---0---0-----|
G|---1---2---4---1---6---4---2---1---4---|
D|---------------------------------------|
A|---------------------------------------|
E|---------------------------------------|

E           E/G#            A5              Bbº  A
If you'd accept surrender, give up some more
B7                  E
  Weren't you adored
          E/G#            A5           Bbº
I cannot be without you, matter of fact
      A   B7              E
Oh oh ohh,I'm on your back

E|---0---2---4---0---5---4---2---0---4---|
B|-----0---0---0---0---0---0---0---0-----|
G|---1---2---4---1---6---4---2---1---4---|
D|---------------------------------------|
A|---------------------------------------|
E|---------------------------------------|

F#                  A5
If you walk out on me
                  E
Im walking after you
F#                  A5
If you walk out on me
                     E
Im walking after you

         C#m             A
Another heart is cracked in two
        F#
I'm on your back

( E  C#m  A9  Bbº )

E|---0---2---4---0---5---4---2---0---4---|
B|-----0---0---0---0---0---0---0---0-----|
G|---1---2---4---1---6---4---2---1---4---| (3x)
D|---------------------------------------|
A|---------------------------------------|
E|---------------------------------------|

E           E/G#            A5           Bbº  A5
  I cannot be without you, matter of fact
B7              E
I'm on your back
E/G#             A5  Bbº  A5
I'm on your back,   Oh oh ohh
B7               E
I'm on your back

F#                  A5
If you walk out on me
                  E
Im walking after you
F#                  A5
If you walk out on me
                  E
Im walking after you
F#                  A5
If you walk out on me
                  E
Im walking after you

[Final]

E|---0---2---4---0---5---4---2---0---4---|
B|-----0---0---0---0---0---0---0---0-----|
G|---1---2---4---1---6---4---2---1---4---|
D|---------------------------------------|
A|---------------------------------------|
E|---------------------------------------|
exibições 160.250

0 comentários

mostrar mais comentários

Conseguiu tocar?

28 tocaram 0 ainda não

Grave um vídeo tocando Walking After You e mande pra gente!

00:00 / 00:00
outros vídeos desta música
repetir qualidade Automático
Outros vídeos desta música
00:00 / 00:00
Automático
OK