Cifra Club

Weenie Beenie

Foo Fighters

Cifra: Principal (violão e guitarra)
tom: G
Sexta cuerda en D


Intro/Verse
E|-------------------------|------------------|-------------------||
B|-------------------------|-5-6-6-6--5-6-6-6-|-5-6-6-6--5-6-6-5--||
G|--3---3---3--------------|------------------|-------------------||
D|--3---3---3---3----3---3-|------------------|-------------------||
A|--1---1---1---3----3---3-|------------------|-------------------||
E|--------------3----3---3-|------------------|-------------------||

Chorus
E|------------------------------------------------||
B|------------------------------------------------||
G|------------------------------------------------||
D|--6--6--6--6---6--6--6--6---6--6--6--6---8---8--||
A|--6--6--6--6---6--6--6--6---6--6--6--6---8---8--||
E|--6--6--6--6---6--6--6--6---6--6--6--6---8---8--||

Bridge
E|--------------------------------|---------------------------||
B|--------------------------------|---------------------------||
G|--------------------------------|---------------------------||
D|--------------3-----------------|---------1-----------------||
A|--------------3-----------------|---------1-----------------||
E|--1---2---3-------3---2---1---0-|-1---2----------3---2---1--||
Composição de Dave Grohl
Colaboração e revisão:
  • Guillermo Coquito
4.861 exibições
    • ½ Tom
    • A
    • Bb
    • B
    • C
    • Db
    • D
    • Eb
    • E
    • F
    • F#
    • G
    • Ab
  • Adicionar à lista

    0 comentários

    Ver todos os comentários
    00:00 / 00:00
    Outros vídeos desta música
    Repetir Qualidade Automático
    Outros vídeos desta música
    00:00 / 00:00
    Automático

    Cifra Club Pro

    Aproveite o Cifra Club com benefícios exclusivos e sem anúncios
    Cifra Club Pro
    Aproveite o Cifra Club com benefícios exclusivos e sem anúncios
    OK