Cifra Club

Aprenda

Wheels

Foo Fighters

Tab de baixo: Completa
Já pensou em usar uma coleção de roupas do Cifra Club? Responda as perguntas abaixo e nos ajude nessa missão! →
RIFF #1

G|-----------------------------
D|----------------------------- 
A|-5-5-----7---------------5---  (2X) 
E|-----2/5---5/2-2-2-2h0-0---0-

RIFF #2

G|--------------------------------------|-------------------------------
D|--------------------------------------|-------------------------------
A|-5-5-5h7---------------------7---5h7--|-5-5-5---------------------7--- (4X) 
E|---------5-5-5/6-2-2-2h4-0-0---0------|-------5-5-5/6-2-2-2h4-0-0---7-

RIFF #3
"Well I wanted something better man..."
G|-----------------------------------------------------
D|-----------------------------------------4-----------
A|-5-5-5---------------7-0-5-5-5-------------5/7-7-7-7-  (2X) 
E|-------5-5-5-2-2-2-0-----------5-5-5-2-2-------------

CHORUS
"When the wheels come down..."
G|----------------------------------------------------------------------
D|----------------------------------------------------------------------
A|-5-5-5---------------------------7-5-5-5-5--------------------------7-  (2X) 
E|-------0-5-5-5-5-0-2-2-2-2-0-0-0-----------05-5-5-5-0-2-2-2-2-0-0-0---

RIFF #4
G|-------------------
D|-------------------
A|-5-5---------------
E|-----5-5-2-2/12-12-

RIFF #2 (2x)
RIFF #3 (1x)
CHORUS (2x)

RIFF #5
G|-----------------
D|-----------------
A|-5-5---------2/7-  (2X)
E|-----2/5-2-2-----

RIFF #1 (2x)
CHORUS (4x)
RIFF #5 (1x)

Composição de Foo Fighters
Colaboração e revisão:
  • Daniel
23 exibições

0 comentários

Ver todos os comentários
00:00 / 00:00
Outros vídeos desta música
Repetir Qualidade Automático
Outros vídeos desta música
00:00 / 00:00
Automático

Cifra Club Pro

Aproveite o Cifra Club com benefícios exclusivos e sem anúncios
Cifra Club Pro
Aproveite o Cifra Club com benefícios exclusivos e sem anúncios
OK