Cifra Club

White Limo

Foo Fighters

Cifra: Principal (violão e guitarra)
tom: B
Guitarra 1:
E|----------------------------------------------------------
B|----------------------------------------------------------
G|-------8--------8----------------8--------8---------------
D|---------10-------10---------------10-------10------------
A|----------------------------------------------------------
E|---7-7------7-7------7-7-7-7-7--------7-7------7-7-7-7-7--

Guitarra 2:
E|----------------------------------------------------------
B|----------------------------------------------------------
G|--------------------------------------------10------------
D|---7-9-9-10-9-7-10--99999999---7-9-9-10-9-7-10--99999999--
A|---7-9-9-10-9-7-10--99999999---7-9-9-10-9-7-8---99999999--
E|---5-7-7-8--7-5-8---77777777---5-7-7-8--7-5-----77777777--

 Refrão: B  D  A#  G (4x)
E|-----------------------------------------------------   --------------------
B|-----------------------------------------------------   --------------------
G|-------8-8----------11-11----------7-7-------4-4----- 2 ----------------10--
D|-----------9--------------12-----------8---------5--- x ---7-9-9-10-9-7-10--
A|-----------------------------------------------------   ---7-9-9-10-9-7-8---
E|---7-7--------10-10-----------6-6--------3-3---------   ---5-7-7-8--7-5-----

 Solo 4x: A  E  B
E|------------------------------------------------------------------------------------------
B|----------------------------------------------------------------7-7--9--9--10b-10--14b-12-
G|---------9999--9/11-11-9/11-11--9/11-11--9/11-11----------9999--9b---11b---12------12-----
D|---7777--9999--9/9--9--9/9--9---9/9--9---9/9--9-----7777--9999----------------------------
A|---7777--7777---------------------------------------7777--7777----------------------------
E|---5555---------------------------------------------5555----------------------------------

E|------------------------------------------------------------------------------------------
B|----------------------------------------------------------------12-12-12-12-12-12-12-12---
G|---------9999--9/11-11--9/11-11--9/11-11--9/11-11---------9999--11-11-11-11-11-11-11-11---
D|---7777--9999--9/9--9---9/9--9---9/9--9---9/9--9----7777--9999--9--9--9--9--9--9--9--9----
A|---7777--7777---------------------------------------7777--7777----------------------------
E|---5555---------------------------------------------5555----------------------------------

Riff Final:
E|--------------------------------------------------------------------
B|--------------------------------------------------------------------
G|--------------------------------------------------------------------
D|---7-9-9-10-9-7-10--7-9-9-10-9-7-10--7-9-9-10-9-7-10--7-9-9-10-9-7--
A|---7-9-9-10-9-7-10--7-9-9-10-9-7-10--7-9-9-10-9-7-10--7-9-9-10-9-7--
E|---5-7-7-8--7-5-8---5-7-7-8--7-5-8---5-7-7-8--7-5-8---5-7-7-8--7-5--
00:00 / 00:00
Outros vídeos desta música
Repetir
Outros vídeos desta música
Composição de Foo Fighters
Colaboração e revisão:
  • Guilherme Taveira
  • Gabriel Sant'Anna
9.746 exibições
    • ½ Tom
    • A
    • Bb
    • B
    • C
    • Db
    • D
    • Eb
    • E
    • F
    • F#
    • G
    • Ab
  • Adicionar à lista

    0 comentários

    Ver todos os comentários

    Entre para oCifra Club PRO

    Tenha acesso a benefícios exclusivos no App e no Site

    • Chega de anúncios

    • Prioridade de compra em lançamentos

    • Mais recursos no app do Afinador

    • Atendimento Prioritário

    • Descontos nos produtos Cifra Club

    • Ajude a produzir mais conteúdo

    00:00 / 00:00

    Cifra Club Pro

    Aproveite o Cifra Club com benefícios exclusivos e sem anúncios
    Cifra Club Pro
    Aproveite o Cifra Club com benefícios exclusivos e sem anúncios
    OK