Cifra Club

Word Forward

Foo Fighters

Cifra: Principal (violão e guitarra)
tom: G
Intro:
E|---------------------------------------------------------3----------||
B|-----------------------------------------------------3------3---3---||
G|-------0-------0-------0-------0-------0-------0-------0------0-----||
D|---2-2---2-0-0---0-------------------------0-0---0------------------||
A|-------------------3-3---3-2-2---2-3-3---3--------------------------||
E|---------------------------------------------------3----------------||
                                                      G
E|----------------------------------------------------3---||
B|----------------------------------------------------3---||
G|-------0-------0-------0-------0-------0-------0----0---||
D|---2-2---2-0-0---0-------------------------0-0------0---||
A|-------------------3-3---3-2-2---2-3-3---3-------5--2---||
E|----------------------------------------------------3---||

G5                        E5
Good bye Jimmy, farewell youth
C5                                      F5
I must be on my way I've had enough of you
G5                           E5
Was a young man, proud and true
C5                                      F5
Just a simple boy with nothing left to lose

E5              C5
Years that I've wasted
D5           E5
These I owe you's

                        G5
They're just fucking words
                E5
This is life or death
C5
It's time to clear the air
F5
You better save your breath
G5
Say have you heard
             E5
Say have you heard
C5
The Poison in my heart
F5
And voices in my head
E5              C5
Years that I've wasted
D5           E5
These I owe you's

              G5        E5       C5       G5
I meant every word for word for word forward
G5        E5       C5       G5
Word for word for word forward
G5        E5       C5       G5
Word for word for word forward
G5        E5       C5       G5
Word for word for word forward

E5            G5
But it's only words
E5            G5
I meant every word
E5                   G5
They're just fucking words

G5        E5        C5       G5  
Word for word; for word forward
00:00 / 00:00
Outros vídeos desta música
Repetir
Outros vídeos desta música
Composição de Foo Fighters
Colaboração e revisão:
  • Rodrigo Silva
  • vitor sampaio
13.128 exibições
  • Simplificar cifra
    • ½ Tom
    • A
    • Bb
    • B
    • C
    • Db
    • D
    • Eb
    • E
    • F
    • F#
    • G
    • Ab
  • Adicionar à lista

    0 comentários

    Ver todos os comentários

    Entre para oCifra Club PRO

    Tenha acesso a benefícios exclusivos no App e no Site

    • Chega de anúncios

    • Prioridade de compra em lançamentos

    • Mais recursos no app do Afinador

    • Atendimento Prioritário

    • Descontos nos produtos Cifra Club

    • Ajude a produzir mais conteúdo

    00:00 / 00:00

    Cifra Club Pro

    Aproveite o Cifra Club com benefícios exclusivos e sem anúncios
    Cifra Club Pro
    Aproveite o Cifra Club com benefícios exclusivos e sem anúncios
    OK