Notificações Amigos pendentes

      Forfun

      Hidropônica

      364.796 exibições
      Tom: D
      (intro base 2x) A5 B5 D5 E5
      
      (riff)
      
      E|------------------------------------|
      B|------------------------------------|
      G|9-xxxx-9-9--9-xxxx-9-8--------------|
      D|7-xxxx-7-7--7-xxxx-9-9--------------|
      A|------------------------------------|
      E|------------------------------------|
      
      
      (acordes em power chord)
      
      A5
      Se a vida gasta em você
      B5
      Te faz de pano de chão
      D5                     E5
      Fica tranqüilo porque nada é em vão
      A5                                (abafada)
      E o que se tem a fazer
      B5
      É relaxar e beber
      D5                        E5
      Trocar uma idéia com os amigos no BG
      
      A5
      Gastar a onda no céu
      B5
      E o dinheiro em motel
      D5                     E5
      E lembrar sempre de agradecer por
      A5 B5  D5           E5        A5  B5
      Tudo   vai virar passado no futuro
         D5        E5         F#5 E5
      E dessa vida não se leva nada
      
      A5                     D5
      Felicidade é um fim de tarde olhando o mar
      A5                     D5    E5
      E a gravidade não te impede de voar
      A5           D5
      Longe de toda negatividade
             F#5        E5     D5   A5
      A onda boa se propaga no ar
      
      (base 2x) A5 B5 D5 E5
      
      A5                B5
      A boa é se divertir
                            D5
      Lançar mais uma tattoo
                              E5
      Mandar os problemas e geral tomar no cú
      A5                 B5
      Vou me largar no sofá
                       D5
      Tomar um mate-limão
                                 E5          A5
      Reflito um pouco e chego a uma conclusão
      
      A5  B5  D5                E5         A5  B5
      Nada   brilha mais que a vibe da tua alma
       D5        E5          F#5 E5
      O bem e o amor superam tudo
      
      (dedilhado 8x)
      
      
      E|---5---5---5--5-----5----5---5--------------------|
      B|-5--5---5---5--5--5--5---5---5--------------------|
      G|-----7---7---7--7--4--4-4---4---------------------|
      D|--------------------------------------------------|
      A|5------9------4-----------------------------------|
      E|--------------------4---5-------------------------|
      
      
      segunda guitarra abafada( D5 E5 D/C# G#5 A5 )
      
      E quando o sol invade os olhos
      É só pra te lembrar
      Que o bom da vida não tem preço
      E é hora de acordar
      
      (solo)
         (guitarra 1)                        (guitarra 2)
      
      E|------------------------------|---------------------------|
      B|--10--9--10--12--10--9--10----|-14-12-14-15-14-12-14------|
      G|------------------------------|---------------------------|
      D|------------------------------|---------------------------|
      A|------------------------------|---------------------------|
      E|------------------------------|---------------------------|
      
      
      (guitarra 1 e 2 juntas    |   (guitarra 1)                        (guitarra 2)
      
      ----------------------------9-7-7-9-10-9-7-9---|----------------------12---------14------------|
      --10--9--10--12--10--9--10---------------------|-14-12-14-15-14-12-14----14-12-14---14-12-14---|
      -----------------------------------------------|-----------------------------------------------|
      -----------------------------------------------|-----------------------------------------------|
      -----------------------------------------------|-----------------------------------------------|
      -----------------------------------------------|-----------------------------------------------|
      
      
                (guitarra 1)                 (guitarra 2)
      
      ----------------------------------|-------------------------|
      --10--9-10-10h12--10--9--10-------|14-12-14 14s15-14-12-14--|
      ----------------------------------|-------------------------|
      ----------------------------------|-------------------------|
      ----------------------------------|-------------------------|
      ----------------------------------|-------------------------|
      
      
      ----------------------------9-7-7-9-10-9-7-9---|----------------------12---------14------------|
      --10--9--10--12--10--9--10---------------------|-14-12-14-15-14-12-14----14-12-14---14-12-14---|
      -----------------------------------------------|-----------------------------------------------|
      -----------------------------------------------|-----------------------------------------------|
      -----------------------------------------------|-----------------------------------------------|
      -----------------------------------------------|-----------------------------------------------|
      
      
      A5                      D5
      Felicidade é um fim de tarde olhando o mar
      A5                     D5   E5
      E a gravidade não te impede de voar
      A5            D5
      Perto de toda positividade
             F#5        E5    D5   A5
      A onda boa se propaga no ar
        Composição: ForfunColaboração e revisão:
        • juninho
        • Heitor Venturini

        Comentários 1

        140 .
        • Fernando Fernando: Em 10/02/2016 23:20

          Façam uma vídeo aula para essa música por favor!

        140 cancelar

        conseguiu tocar?

        • •••
        Ana Cecília Carvalho Elena919 visualizações
          ver covers de outras músicas »
          0:00 / 0:00

          Capítulos

            1 versão de baixo exibições contribuição e correção
            1 versão de bateria exibições contribuição e correção
            2 versões de Guitar Proformatodownloadscontribuição
            play/pausefechar subir/descer velocidade
            6ª corda E5ª corda A4ª corda D3ª corda G2ª corda B1ª corda E
              acordes
              publicidade
              fechar
              ok