Notificações Amigos pendentes

      Forfun

      Sol Ou Chuva

      375.345 exibições
      Tom: G
      Intro: Em  C  D
      Riff 1:
      
           Em                                      C               B
      E|--x-x-7-x--x-x-7-x--x-x-7-x--x-x-7-x--x-x-8--x--x-x-8--x--x-x-7-x--x-x-7-x----------|
      B|--x-x-8-x--x-x-8-x--x-x-8-x--x-x-8-x--x-x-8--x--x-x-8--x--x-x-7-x--x-x-7-x----------|
      G|--x-x-9-x--x-x-9-x--x-x-9-x--x-x-9-x--x-x-9--x--x-x-9--x--x-x-8-x--x-x-8-x----------|
      D|--x-x-9-x--x-x-9-x--x-x-9-x--x-x-9-x--x-x-10-x--x-x-10-x--x-x-9-x--x-x-9-x----------|
      A|--x-x-7-x--x-x-7-x--x-x-7-x--x-x-7-x--x-x-10-x--x-x-10-x--x-x-9-x--x-x-9-x----------|
      E|--x-x---x--x-x---x--x-x---x--x-x---x--x-x-8--x--x-x-8--x--x-x-7-x--x-x-7-x----------|
      
      
      Riff 1:
       Em                          C
       Corre pra varanda e vem cá ver...
         B           Em                        C
       Faça Sol ou Chuva um lindo dia vai nascer,
           B          Em
       no céu em degradê
      
      (Riff 1 - 2x)
      
      (Riff 1)
           Em                        C
       Meus olhos imóveis fitam o mar
       B             Em                        C
       Vim pedir a força e as bençãos de Iemanjá,
        B              Am
       amor pra me guiar
      Riff 2:
      
          Am   G            Am   G             Am   G            Am    B7
      E|-5~--------3-------5~--------3--------5~--------3-------5~----7----|
      B|-5~-------3-3------5~---------3-------5~-------3-3------5~----7----|
      G|-5~------4---4-----5~------4---4------5~------4---4-----5~----8----|
      D|-7~-----5----------7~-----5-----5-----7~-----5----------7~----7----|
      A|-7~----------------7~-----------------7~----------------7~----9----|
      E|-5~---3------------5~---3-------------5~---3------------5~----7----|
      
      
          Am                                   G
      E|--x-x-5-x--x-x-5-x--x-x-5-x--x-x-5-x--x-x-3-x--x-x-3-x--x-x-3-x--x-x-3-x----|
      B|--x-x-5-x--x-x-5-x--x-x-5-x--x-x-5-x--x-x-3-x--x-x-3-x--x-x-3-x--x-x-3-x----|
      G|--x-x-5-x--x-x-5-x--x-x-5-x--x-x-5-x--x-x-4-x--x-x-4-x--x-x-4-x--x-x-4-x----|
      D|--x-x-7-x--x-x-7-x--x-x-7-x--x-x-7-x--x-x-5-x--x-x-5-x--x-x-5-x--x-x-5-x----|
      A|--x-x-7-x--x-x-7-x--x-x-7-x--x-x-7-x--x-x-5-x--x-x-5-x--x-x-5-x--x-x-5-x----|
      E|--x-x-5-x--x-x-5-x--x-x-5-x--x-x-5-x--x-x-3-x--x-x-3-x--x-x-3-x--x-x-3-x----|}
      
      
          Am                                      B7
      E|--x-x-5-x--x-x-5-x--x-x-5-x--x-x-5-x-----7~-------------------------|
      B|--x-x-5-x--x-x-5-x--x-x-5-x--x-x-5-x-----7~-------------------------|
      G|--x-x-5-x--x-x-5-x--x-x-5-x--x-x-5-x-----8~-------------------------|
      D|--x-x-7-x--x-x-7-x--x-x-7-x--x-x-7-x-----7~-------------------------|
      A|--x-x-7-x--x-x-7-x--x-x-7-x--x-x-7-x-----9~-------------------------|
      E|--x-x-5-x--x-x-5-x--x-x-5-x--x-x-5-x-----7~-------------------------|
      
      
      
      (Riff 2)
       Am                      G            Am
       Vi os meus olhos refletidos pelos seus,
                            G               Am
       e as imagens de um futuro que já aconteceu
                            G           Am
       Qualquer canto pode ser a nossa casa
                                  B7
       O nada, o tudo, o todo, o tudo e o nada!
      
      (Riff 1)
       Em                          C
       Corre pra varanda e vem cá ver...
         B           Em                        C
       Faça Sol ou Chuva um lindo dia vai nascer,
           B          Em
       no céu em degradê
      
      (Riff 1 - 2x)
      
      Em                        C
       Flores nascerão nesse jardim
      B              Em                        C
       Nuvens no horizonte dessa imensidão sem fim
      B                Am
       O que trarão a mim?
      Riff 3:
      
      E|-----7~------------5-(5)-(5)-----3-(3)-(3)----------------------|
      B|----------------------------------------------------------------|
      G|----------------------------------------------------------------|
      D|----------------------------------------------------------------|
      A|----------------------------------------------------------------|
      E|----------------------------------------------------------------|
      
      
      
      (Riff 2)
                       G             Am
      À sombra da amendoeira me abriguei
                              G
       Deitei nos braços de Morfeu,
                  Am
       e quando eu acordei,
                     G              Am
       vagalumes visitavam a nossa casa
                                  B7
       O nada, o tudo, o todo, o tudo e o nada!
      
            B7        B7 (Com variação)
      E|---7~--------11~-------------------|
      B|---7~--------7~-------------------|
      G|---8~--------8~-------------------|
      D|---7~--------7~-------------------|
      A|---9~--------9~-------------------|
      E|---7~--------7~-------------------|
      
      
      Solo 4x:
      
      E|-------------------------------------------12-------------------|
      B|------------------------------15b17-b17-15----------------------|
      G|---7h9-7h9-7h9--/21~--------------------------14b16r14-12-------|
      D|----------------------------------------------------------14----|
      A|----------------------------------------------------------------|
      E|----------------------------------------------------------------|
      
      
      E|----------------------------------------------------------------|
      B|----------------------------------------------------------------|
      G|---12h14p12----12-----------------------------------------------|
      A|------------14----14-12-12---12h14------------------------------|
      D|--------------------------------------12h14-12-------10---------|
      E|--------------------------------------------------12----12------|
      
      
      E|----------------------------------------------------------------|
      B|----------------------------------------------------------------|
      G|---------------------------7------------------------------7-----|
      D|---------------7h9-9---7h9-----9-9-9-9-------------5---/9-------|
      A|---------10h12----------------------------------/7--------------|
      E|---10h12--------------------------------------------------------|
      
      
      E|----------------------------------------------------------------|
      B|---/12-10s8-----------------------------------------------------|
      G|-------------9p7-9p7--------------------------------------------|
      D|----------------------9p7-5-7p5-----5*--------------------------|
      A|--------------------------------7-5----7------------------------|
      E|----------------------------------------------------------------|
      
      
      E|---7h10p7h10p7h10p7h10p7h10s12-----12h15p12h15p12h15p12h15b17---|
      B|----------------------------------------------------------------|
      G|----------------------------------------------------------------|
      D|----------------------------------------------------------------|
      A|----------------------------------------------------------------|
      E|----------------------------------------------------------------|
      
      
      
      (Riff 1)
       Em                           C
       Corre pra varanda e vem cá ver...
         B           Em                        C
       Faça Sol ou Chuva um lindo dia vai nascer,
           B          Em
       no céu em degradê
       Em                           C
       Corre pra varanda e vem cá ver...
         B           Em                        C
       Faça Sol ou Chuva um lindo dia vai nascer,
           B
       no céu...
      
          A5         G5         A5          G5
      E|----------------------------------------------------------------|
      B|----------------------------------------------------------------|
      G|----------------------------------------------------------------|
      D|----------------------------------------------------------------|
      A|-7--7-------5--5-------7--7-------5-5-5-------------------------|
      E|-5--5---0-5-3--3---0-3-5--5---0-5-3-3-3-------------------------|
      
      
          A5         G5         A5          G5
      E|----------------------------------------------------------------|
      B|----------------------------------------------------------------|
      G|----------------------------------------------------------------|
      D|----------------------------------------------------------------|
      A|-7--7-------5--5-------7--7-------5-5---5-5---------------------|
      E|-5--5---0-5-3--3---0-3-5--5---0-5-3-3---3-3---------------------|
      
      
          A5               G5              A5             G5
      E|----------------------------------------------------------------|
      B|----------------------------------------------------------------|
      G|----------------------------------------------------------------|
      D|----------------------------------------------------------------|
      A|-7-7-x-7---------5-5-x-5---------7-7-x-7---------5-5-x-5--------|
      E|-5-5-x-5---0-5-0-3-3-x-3---0-3-3-5-5-x-5---0-5-0-3-3-x-3--0-3-3-|
      
      
          A5               G5              A5                B7
      E|-----------------------------------------------------7----------|
      B|-----------------------------------------------------7----------|
      G|-----------------------------------------------------8----------|
      D|-----------------------------------------------------7----------|
      A|-7-7-x-7---------5-5-x-5---------7-7-x-7-------------9----------|
      E|-5-5-x-5---0-5-0-3-3-x-3---0-3-3-5-5-x-5---0-5-0-----7----------|
      
                                                            (limpo)
      
        Composição: Danilo Cutrim, Vitor Isensee, Nicolas Christ, Rodrigo CostaColaboração e revisão:
        • Anderson
        • mpmegas
        • MirandaCMA
        • Luidson
        • +10

        Comentários 4

        140 .
        • kahcunha. kahcunha.: Em 03/06/2012 21:19

          Caraca, eu fui no show deles ontem e percebi, Rodrigo toca muuuuuuuito! Ahhh Forfun, difícil de tocar...! =/ Mas foda! =)

          • Bu'd Bu'd: Em 29/11/2013 21:37

            Não é fácil mesmo não , rs

        • kennet kennet: Em 05/01/2012 15:27

          é solo é muito dificil !!!!!

        • Hyago Vocal e Violão (base e solo) Hyago Vocal e Violão (base e solo): Em 10/08/2011 20:44

          como envia video pra la ?

        140 cancelar
        0:00 / 0:00

        Capítulos

          2 versões de Guitar Proformatodownloadscontribuição
          play/pausefechar subir/descer velocidade
          6ª corda E5ª corda A4ª corda D3ª corda G2ª corda B1ª corda E
            acordes
            publicidade
            fechar
            ok