Cifra Club

Aprenda

Cumm On

Forgotten Boys

Cifra: Principal (violão e guitarra)
tom: F
       Riff1                      Riff2          
e|----------------|        e|----------------|
B|-6-6-4-6b-------|        B|----------------|
G|----------5-----|        G|--5-5-3--5-5-3--|
D|----------------|        D|--5-5-3--5-5-3--|
A|----------------|        A|--3-3-3--3-3-3--|
E|----------------|        E|----------------|


Riff2                 F  G 
Maybe it’s just because
Riff2             F  G 
It’s so easy baby
Riff2                  F  G 
I’m gonna give you one
Riff2                  F  G  G#  G
Once and one time only

Riff2                           F  G 
And do you think you are ready?
Riff2                    F  G 
Don’t call me rocksteady
Riff2                    F  G 
Call me cold heartbreaker
Riff2                 F  G  G#  G
Breaking just for fun


(G#)                  Riff2 2x
Do you really wanna bet it all tonight?
(G#)                              Riff2 2x
Oh Yeah!, Oh Yeah!, Oh Yeah! Ye Yea!
(G#)                 Riff2 2x
Do you really wanna lose your mind for good?
Bb                           B
You say you’re pretty young, but it’s too late
                      Riff1
Show must go on and on 
      Riff1
Cumm on
      Riff1
Cumm on
           Riff1
All over me 

Riff2                 F  G 
Maybe it’s just because
Riff2             F  G 
It’s so easy baby
Riff2                  F  G 
I’m gonna give you one
Riff2                  F  G  G#  G
Once and one time only

Riff2                           F  G 
And do you think you are ready?
Riff2                    F  G 
Don’t call me rocksteady
Riff2                    F  G 
Call me cold heartbreaker
Riff2                 F  G  G#  G
Breaking just for fun


(G#)                  Riff2 2x
Do you really wanna bet it all tonight?
(G#)                              Riff2 2x
Oh Yeah!, Oh Yeah!, Oh Yeah! Ye Yea!
(G#)                 Riff2 2x
Do you really wanna lose your mind for good?
Bb                           B
You say you’re pretty young, but it’s too late
                      Riff1
Show must go on and on 
      Riff1
Cumm on
      Riff1
Cumm on
           Começa o solo
All over me 

Solo
e|---------------------------------------------------------------
b|-----------4--6--4--6b--4-----4-----------4--6--4-6b--4-----4b-
g|-5~--3--5~-----------------5-----5--3--5-----------------5-----
d|---------------------------------------------------------------
a|---------------------------------------------------------------
E|---------------------------------------------------------------

e|----------------------------------------------------11---------
b|----------4--6--4--6b--4-----4b-----------------11b------11b---
g|-5--3--5-----------------5------5--3--5--3--5------------------
d|---------------------------------------------------------------
a|---------------------------------------------------------------
E|---------------------------------------------------------------

e|----------------------------------------------------------------11---------
b|-------------------------6b--4--6--4------------------------11b----11b--11-
g|-------------5--3--5--3---------------------------5--5---3-----------------
d|-6--5--3------------------------------6--5--3-----5--5---3-----------------
a|----------6------------------------------------6---------------------------
E|---------------------------------------------------------------------------

e|--------------------------------|-----------------6----------------------
b|----------------4-----6-6b---4--|--6b--6b--6b--6b---6b--4--4-------------
g|-------------5-----5------------|-------------------------5--5~----------
d|-6--5--3------------------------|----------------------------------------
a|----------6---------------------|----------------------------------------
E|--------------------------------|----------------------------------------

e|---------------------------------------------------------------
b|-----------4--6--4--6b--4-----4-----------4--6--4-6b--4-----4b-
g|-5~--3--5~-----------------5-----5--3--5-----------------5-----
d|---------------------------------------------------------------
a|---------------------------------------------------------------
E|---------------------------------------------------------------

e|----------------------------------------------------11---------
b|----------4--6--4--6b--4-----4b-----------------11b------11b---
g|-5--3--5-----------------5------5--3--5--3--5------------------
d|---------------------------------------------------------------
a|---------------------------------------------------------------
E|---------------------------------------------------------------
e|---------------------------------------------------------------------
b|-6--6--4--6b------4--6--4--6--4--6b------6--6--4--6b-----4--6--4--6--
g|--------------5---------------------5-----------------5--------------
d|---------------------------------------------------------------------
a|---------------------------------------------------------------------
E|---------------------------------------------------------------------

e|------------------------------------------------------------------------
b|-4--6--4--6b--4-----6b--------------------------------------------------
g|-----------------5------10b--10b--10b--10b--10b--10b--8------10-10--10--
d|---------------------------------------------------------10-------------
a|------------------------------------------------------------------------
E|------------------------------------------------------------------------

e|------------------------------------------------
b|------------------------------------------------
g|-8--8--8--8-------------------------------------
d|-------------10~~--5----------------------------
a|-------------------3----------------------------
E|------------------------------------------------
Composição de Forgotten Boys
Colaboração e revisão:
  • Ronaldo Rodrigues
  • Pedro
10.608 exibições
    • ½ Tom
    • A
    • Bb
    • B
    • C
    • Db
    • D
    • Eb
    • E
    • F
    • F#
    • G
    • Ab
  • Adicionar à lista

    0 comentários

    Ver todos os comentários
    00:00 / 00:00
    outros vídeos desta música
    repetir qualidade Automático
    Outros vídeos desta música
    00:00 / 00:00
    Automático

    Cifra Club Pro

    Aproveite o Cifra Club com benefícios exclusivos e sem anúncios
    Cifra Club Pro
    Aproveite o Cifra Club com benefícios exclusivos e sem anúncios
    OK