Cifra Club

Aprenda

Amor Virtual

Forró Boys

Cifra: Principal (violão e guitarra)
tom: F
Intro: C
C      Bb
Cadê você?
    Dm         C
Que Some! Não Some!
C        Bb       Dm
Só sei dizer seu nome
     C
Seu nome!

Base Solo: Bb Dm C

Solo:

E|---------------------------------
B|--------1h3-1h3---------1h3-1h3--
G|3-3-3-3---------3-3-3-3----------
D|---------------------------------
A|---------------------------------
E|---------------------------------

E|-----------------------------------
B|--------5h6-5h6-----------5h6-5h6--
G|7-7-7-7----------7-7-7-7-----------
D|-----------------------------------
A|-----------------------------------
E|-----------------------------------

G|--5-5-5-5---7h9-7h9--| 4x

E|---------------------------------
B|--------1h3-1h3---------1h3-1h3--
G|3-3-3-3---------3-3-3-3----------
D|---------------------------------
A|---------------------------------
E|---------------------------------

E|-----------------------------------
B|--------5h6-5h6-----------5h6-5h6--
G|7-7-7-7----------7-7-7-7-----------
D|-----------------------------------
A|-----------------------------------
E|-----------------------------------

G|--5-5-5-5---7h9-7h9--| 4x

G|--10--9--7--5--5h7~---|

Bb                                 Dm
Quando estou sozinho, mesmo sem querer
              C
Só penso em você
 Bb                               Dm
Entro no seu orkut, clico no seu álbum
        F        C
Fico admirando você
Eb                          F             C
Todo esse sentimento nem parece, amor virtual
Eb                    F
Por que você some apareça por favor
            C
me dê um sinal
C        Eb
ou ou ou ou
Eb                 F                       C
No msn a gente se fala mais não posso te tocar
Eb                           F                        C
Te quero de verdade vem de pressa Tô doidinho pra te amar 
C
ou ou
C      Bb
Cadê você,
     Dm       C
que some não some
C        Bb
Só sei dizer
     Dm        C
Seu nome, seu nome
C      Bb
Cadê você,
     Dm       C
que some não some
C        Bb
Só sei dizer
     Dm        C
Seu nome, seu nome

Repete Solo 

Bb                                 Dm
Quando estou sozinho, mesmo sem querer
              C
Só penso em você
 Bb                               Dm
Entro no seu orkut, clico no seu álbum
        F        C
Fico admirando você
Eb                          F             C
Todo esse sentimento nem parece, amor virtual
Eb                    F
Por que você some apareça por favor
            C
me dê um sinal
C        Eb
ou ou ou ou
Eb                 F                       C
No msn a gente se fala mais não posso te tocar
Eb                           F                        C
Te quero de verdade vem de pressa Tô doidinho pra te amar 
C
ou ou
C      Bb
Cadê você,
     Dm       C
que some não some
C        Bb
Só sei dizer
     Dm        C
Seu nome, seu nome
C      Bb
Cadê você,
     Dm       C
que some não some
C        Bb
Só sei dizer
     Dm        C
Seu nome, seu nome

Repete Solo
Composição de Thiago Jhonathan (TJ)
Colaboração e revisão:
  • Gabriel
  • RAFAEL TORRES
  • Vicktor Sousa
37.501 exibições
    • ½ Tom
    • A
    • Bb
    • B
    • C
    • Db
    • D
    • Eb
    • E
    • F
    • F#
    • G
    • Ab
  • Adicionar à lista

    0 comentários

    Ver todos os comentários

    Conseguiu tocar?

    6 Tocaram 1 Ainda não

    Grave um vídeo tocando Amor Virtual e nos envie!

    00:00 / 00:00
    Outros vídeos desta música
    Repetir Qualidade Automático
    Outros vídeos desta música
    00:00 / 00:00
    Automático

    Cifra Club Pro

    Aproveite o Cifra Club com benefícios exclusivos e sem anúncios
    Cifra Club Pro
    Aproveite o Cifra Club com benefícios exclusivos e sem anúncios
    OK