Cifra Club

É o Chefe

Forró Pegado

Cifra: Principal
exibições 25.082
Tom: B
Intro:
E|------------------------------------------------------------------------------------------------------------|
B|----------------12-12-12-12-12-----------------------------------------------12-12-12-12-12-11-11-11-11-11---
G|-13-13-13-13-13-------------------------------13-13-13-13-13--11-11-11-11-11---------------------------------
D|-------------------------------14-14-14-14-14----------------------------------------------------------------
A|------------------------------------------------------------------------------------------------------------|
E|------------------------------------------------------------------------------------------------------------|

E|------------------------------------------------------------------------------------------------------------|
B|-14-14------------------------------------------------------------------------------------------------------|
G|-------11-12-13---------------------------------------------------------------------------------------------|
D|------------------------------------------------------------------------------------------------------------|
A|------------------------------------------------------------------------------------------------------------|
E|------------------------------------------------------------------------------------------------------------|

  G#m
  Quando Chega na balada
    E
  Sempre chama a atenção

 B
  Pelas Roupas que ele
      F#
  Usa e a grossura do cordão

 G#m
  Deixa os Playboy Rasga
    E
  Sempre com muita fartura
 B
  Whisky com Red Bull
 E
  A mais perfeita mistura

G#m
  Trata todos com respeito
   E
  Isso já é de costume

 B
  As novinha ficam loca
   F#
  Com cheiro do seu perfume

 G#m
  Gosta de Ostentação
  E
  E não tem problema algum

   B
  As novinha fica loca
   F#
  Para anda na R1

G#m
  Patrocina a ousadia e
  E
  E as novinha se derrete

  B        F#
  É o Chefe É o Chefe

G#m
  Considerado e respeitado
  E
  E com ele ninguém se mete

 B         F#
  É o Chefe É o Chefe (2x)
Acordes para:
    Colaboração e revisão:

    0 comentários

      mostrar mais comentários

      Conseguiu tocar?

      1tocaram0ainda não

      Grave um vídeo tocando É o Chefe e mande pra gente!

      00:00 / 00:00
      outros vídeos desta música
      repetirqualidadeautomática
      Outro vídeos desta música
        00:00 / 00:00
        automática
        OK