Cifra Club

Five-Five-Five

Frank Zappa

Cifra: Principal (violão e guitarra)
Selo Cifra Club: esta cifra foi revisada para atender aos critérios oficiais da nossa Equipe de Qualidade.
tom: D
E|-----------------------------------------------------------------------------|
B|-----------------------------------------------------------------------------|
G|-3-0-0-3-3-3-0-0-3-3-1-0-0-1-1-0-0-1-1-3-0-0-3-3-3-0-0-3-3-1-0-0-1-1-0-0-1-1-|
D|-----------------------------------------------------------------------------|
A|-----------------------------------------------------------------------------|
E|-----------------------------------------------------------------------------|

E|-----------------------------------------------------------------------------|
B|-----------------------------------------------------------------------------|
G|-5-0-0-5-5-5-0-0-5-5-7-0-0-7-7-0-0-7-7-5-0-0-5-5-5-0-0-5-5-7-0-0-7-7-0-0-7-7-|
D|-----------------------------------------------------------------------------|
A|-----------------------------------------------------------------------------|
E|-----------------------------------------------------------------------------|

E|-----------------------------------------------------------------------------|
B|-----------------------------------------------------------------------------|
G|-8-0-0-8-8-8-0-0-8-8-7-0-0-7-7-0-0-7-7-8-0-0-8-8-8-0-0-8-8-7-0-0-7-7-0-0-7-7-|
D|-----------------------------------------------------------------------------|
A|-----------------------------------------------------------------------------|
E|-----------------------------------------------------------------------------|

E|-------------------------------------------------------------------------------|
B|-------------------------------------------------------------------------------|
G|-10-0-0-10-10-10-0-0-10-10-12-0-0-12-12-0-0-12-12-10-0-0-10-10-10-0-0-10-10-12-|
D|-------------------------------------------------------------------------------|
A|-------------------------------------------------------------------------------|
E|-------------------------------------------------------------------------------|

E|---------------------|
B|---------------------|
G|-0-0-12-12-0-0-12-12-|
D|---------------------|
A|---------------------|
E|---------------------|

E|-------------------------------------------------------------------------|
B|-------------------------------------------------------------------------|
G|-13-0-0-13-13-13-0-0-13-13-13-0-0-13-13-13-0-0-13-13-13-0-0-13-13-13-0-0-|
D|-------------------------------------------------------------------------|
A|-------------------------------------------------------------------------|
E|-------------------------------------------------------------------------|

E|-----------------------|
B|-----------------------|
G|-13-13-13-0-0-13-13-13-|
D|-----------------------|
A|-----------------------|
E|-----------------------|

Guitar II

E|-----------------------------------------------------------------------------|
B|-----------------------------------------------------------------------------|
G|-----------------------------------------------------------------------------|
D|-3-0-0-3-3-3-0-0-3-3-1-0-0-1-1-0-0-1-1-3-0-0-3-3-3-0-0-3-3-1-0-0-1-1-0-0-1-1-|
A|-----------------------------------------------------------------------------|
E|-----------------------------------------------------------------------------|

E|-----------------------------------------------------------------------------|
B|-----------------------------------------------------------------------------|
G|-----------------------------------------------------------------------------|
D|-5-0-0-5-5-5-0-0-5-5-7-0-0-7-7-0-0-7-7-5-0-0-5-5-5-0-0-5-5-7-0-0-7-7-0-0-7-7-|
A|-----------------------------------------------------------------------------|
E|-----------------------------------------------------------------------------|

E|-----------------------------------------------------------------------------|
B|-----------------------------------------------------------------------------|
G|-----------------------------------------------------------------------------|
D|-8-0-0-8-8-8-0-0-8-8-7-0-0-7-7-0-0-7-7-8-0-0-8-8-8-0-0-8-8-7-0-0-7-7-0-0-7-7-|
A|-----------------------------------------------------------------------------|
E|-----------------------------------------------------------------------------|

E|-----------------------------------------------------------------------------------|
B|-----------------------------------------------------------------------------------|
G|-----------------------------------------------------------------------------------|
D|-10-0-0-10-10-10-0-0-10-10-12-0-0-12-12-0-0-12-12-10-0-0-10-10-10-0-0-10-10-12-0-0-|
A|-----------------------------------------------------------------------------------|
E|-----------------------------------------------------------------------------------|

E|-----------------|
B|-----------------|
G|-----------------|
D|-12-12-0-0-12-12-|
A|-----------------|
E|-----------------|

E|-------------------------------------------------------------------------|
B|-------------------------------------------------------------------------|
G|-------------------------------------------------------------------------|
D|-13-0-0-13-13-13-0-0-13-13-13-0-0-13-13-13-0-0-13-13-13-0-0-13-13-13-0-0-|
A|-------------------------------------------------------------------------|
E|-------------------------------------------------------------------------|

E|-----------------------|
B|-----------------------|
G|-----------------------|
D|-13-13-13-0-0-13-13-13-|
A|-----------------------|
E|-----------------------|
Outros vídeos desta música
    1 exibições
      • ½ Tom
      • A
      • Bb
      • B
      • C
      • Db
      • D
      • Eb
      • E
      • F
      • F#
      • G
      • Ab
    • Adicionar à lista

    Afinação da cifra

    Afinador online

      0 comentários

      Ver todos os comentários

      Entre para o Cifra Club PRO

      Tenha acesso a benefícios exclusivos no App e no Site

      • Chega de anúncios

      • Mais recursos no app do Afinador

      • Atendimento Prioritário

      • Aumente seu limite de lista

      • Ajude a produzir mais conteúdo

      Cifra Club Pro

      Aproveite o Cifra Club com benefícios exclusivos e sem anúncios
      Cifra Club Pro
      Aproveite o Cifra Club com benefícios exclusivos e sem anúncios
      OK