Cifra Club

Aprenda

Right Action

Franz Ferdinand

Tab de baixo: Principal
Verse
G|---------|
D|---------|
A|-5-5-----|
E|-----3-3-| x8


Chorus
G|----------------------------------|
D|-------3-5-5-5-4-3-3-3-4-5-5-5----|
A|-5-5-5----------------------------|
E|----------------------------------|   


Verse x6

Chorus

Verse x2


Verse 2
G|-------------------------------------|
D|-------------------------------------|
A|-3-3-3-3--5-5-5-5--3-3-3-3-----------|
E|----------------------------5-5-5-5--| x2


Verse x12

Chorus

Verse x6

Chorus

Verse x2

Verse 2

Verse x7


Bridge
G|---------|
D|---------|
A|---------|
E|-1-1-3-3-|

G|--------------------------------|
D|--------------------------------|
A|--------------------------------|
E|-55-0-5--33-0-3--55-0-5--33-0-3-|   x3


Verse x4


Bridge 2
G|----12----12----12----12--------|
D|-12----12----12----12-----------|
A|--------------------------12/5--|
E|--------------------------------|


Chorus x4
Colaboração e revisão:
  • Altair Santos
1.447 exibições

0 comentários

Mostrar mais comentários

Conseguiu tocar?

1 Tocaram 0 Ainda não

Grave um vídeo tocando Right Action e mande pra gente!

00:00 / 00:00
outros vídeos desta música
repetir qualidade Automático
Outros vídeos desta música
00:00 / 00:00
Automático

Cifra Club Pro

Aproveite o Cifra Club com benefícios exclusivos e sem anúncios
Cifra Club Pro
Aproveite o Cifra Club com benefícios exclusivos e sem anúncios
OK