Cifra Club

Guarda-Roupa

Fred e Fabrício

Cifra: Principal (violão e guitarra)
Selo Cifra Club: esta cifra foi revisada para atender aos critérios oficiais da nossa Equipe de Qualidade.
tom: Am
[Intro] Am7  F9  C9  G

Am7          F9                C9
    Não, não tô fazendo drama não
       G                     Am7
Tudo que eu sofro é de verdade
      F9                 C9
Aqui dentro mora um coração
       G                F9
Nunca foi pecado ter saudade

                                      G
Foi mal aí se eu não sei te chamar de ex
                C/E         F9
É que a fila travou na sua vez
                                      G
Não tô implorando pra você voltar pra mim
              C9
Mas se quiser vir

                                   G
Tem muita coisa sua nesse guarda-roupa
                                   Am7
Não quero jogar fora e começar do zero

Meu dengo, ainda te amo
Fm7                         C
    Meu dengo, ainda te quero

[Solo] C  G  Am7  Fm7  G

F9                                        G
    Foi mal aí se eu não sei te chamar de ex
                C/E         F9
É que a fila travou na sua vez
                                      G
Não tô implorando pra você voltar pra mim
              C9
Mas se quiser vir

                                   G
Tem muita coisa sua nesse guarda-roupa
                                   Am7
Não quero jogar fora e começar do zero

Meu dengo, ainda te amo
Fm7                         C
    Meu dengo, ainda te quero 

( Am7  F9  C9  G )

[Tab - Solo]

E|--------------------------------------------------------------|
B|--------------------------------------------------------------|
G|-----0--------------2-2/5-5-4-4-2-2-0-------------------------|
D|-0h2---0h2p0--------------------------2---2-2/5-0-------------|
A|-------------3-0------------------------------------------0---|
E|------------------------------------------------------0h2-----|

Am7          F9                C9
    Não, não tô fazendo drama não
       G                     Am7
Tudo que eu sofro é de verdade
      F9                 C9
Aqui dentro mora um coração
       G                F9
Nunca foi pecado ter saudade

                                      G
Foi mal aí se eu não sei te chamar de ex
                C/E         F9
É que a fila travou na sua vez
                                      G
Não tô implorando pra você voltar pra mim
              C9
Mas se quiser vir

                                   G
Tem muita coisa sua nesse guarda-roupa
                                   Am7
Não quero jogar fora e começar do zero

Meu dengo, ainda te amo
Fm7                         C
    Meu dengo, ainda te quero

[Solo] C  G  Am7  Fm7  G

E|-------------------------------------------------------------------------------7h8-7-|
B|-5-5-5-5-5-6/8-8-8-8-6-5-3-------------------------------5-6p5---5-6-8-8/10-8--------|
G|-5-5-5-5-5-7/9-9-9-9-7-5-4---4-4-4-4-4-----4-5p4---4-5-7-------7---------------------|
D|-----------------------------5-5-5-5-5-5-7-------7-----------------------------------|
A|-------------------------------------------------------------------------------------|
E|-------------------------------------------------------------------------------------|

E|-10h12-10h12------7-8-7h8p7----------------------------------------------------------|
B|---------------10-----------10-8-8/9--------6p5-------------------------------1------|
G|------------------------------------------------7-5---5-5/7--7-7-7-7--------0--------|
D|----------------------------------------5/7---------7-------------------0h2-----2h3--|
A|-------------------------------------------------------------------------------------|
E|-------------------------------------------------------------------------------------|

F9                                        G
    Foi mal aí se eu não sei te chamar de ex
                C/E         F9
É que a fila travou na sua vez
                                      G
Não tô implorando pra você voltar pra mim
              C9
Mas se quiser vir

                                   G
Tem muita coisa sua nesse guarda-roupa
                                   Am7
Não quero jogar fora e começar do zero

Meu dengo, ainda te amo
Fm7                         C
    Meu dengo, ainda te quero
00:00 / 00:00
Outros vídeos desta música
Repetir
Outros vídeos desta música
91.457 exibições
    • ½ Tom
    • Am
    • Bbm
    • Bm
    • Cm
    • C#m
    • Dm
    • Ebm
    • Em
    • Fm
    • F#m
    • Gm
    • G#m
  • Adicionar à lista

Afinação da cifra

Afinador online

    0 comentários

    Ver todos os comentários

    Entre para o Cifra Club PRO

    Tenha acesso a benefícios exclusivos no App e no Site

    • Chega de anúncios

    • Mais recursos no app do Afinador

    • Atendimento Prioritário

    • Aumente seu limite de lista

    • Ajude a produzir mais conteúdo

    00:00 / 00:00

    Cifra Club Pro

    Aproveite o Cifra Club com benefícios exclusivos e sem anúncios
    Cifra Club Pro
    Aproveite o Cifra Club com benefícios exclusivos e sem anúncios
    OK