Cifra Club

Você É Muito Mais

Fred e Fabrício

Cifra: Principal (violão e guitarra)
Selo Cifra Club: esta cifra foi revisada para atender aos critérios oficiais da nossa Equipe de Qualidade.
tom: D
[Intro] D9  A/C#  Bm  G  D9  A 

                 D9
E|----------------------------------------|
B|--------5-7--7/12--10/8--10~--8/7--8/7--|
G|-7-7-7----------------------------------|
D|----------------------------------------|
A|----------------------------------------|
E|----------------------------------------|

       A/C#      Bm
E|----------------------------------------|
B|--------5-7--7/12--10/8--10~--8/7--8/7--|
G|-7-7-7----------------------------------|
D|----------------------------------------|
A|----------------------------------------|
E|----------------------------------------|

                G               D9
E|----------------------------------------|
B|-7-7-7--8/10--10-----------12p10--------|
G|---------------------------X------------|
D|-7-7-7--9/11--11-------12--X--------12--|
A|------------------7/9------X-----/9-----|
E|---------------------------X------------|

     A
E|----------------------------------------|
B|-8/10--8--7--8/10--8--7--7\5~-----------|
G|----------------------------------------|
D|-9/11--9--7--9/11--9--7--7\5~-------12--|
A|--------------------------------7/9-----|
E|----------------------------------------|


D9
Oi
        G   
Eu nem vou te perguntar
            A         D9   
Como é que foi sua semana
        G
Já sei tudo de você
         A                  Bm
Se esqueceu que você mesma conta?
               G
E eu só sofro mesmo

 D9  D/F#      G               
Sei,   que eu não tenho direito
       A              D9
De exigir, te cobrar nada
D/F#      G                 A
  Só fala isso pro meu coração
                      Bm
Que está ardendo em brasa
     A    G
De ciúme louco

          D9
Fazendo amor de verdade cê chora
  A/C#   Bm       
Até me iludo naquele momento
    D/F#     G
Mas essa ilusão dura o tempo
     D/F#     
Que dura o prazer
       Em         G         A
Outro fim de semana que perdi você

       D9
Esse amor tá com cara de esmola
   A/C#     Bm       
Parece que gosta de me ver sofrendo
    D/F#      G              D/F#
Se para o seu ego eu sou alimento
               Em      G        A
Saiba que pra mim você é muito mais
                    D9  D/F#  G   D9 Em D9
Do que os outros estão ten...do

D9
Oi
D/F#      G   
  Eu nem vou te perguntar
            A         D9   
Como é que foi sua semana
D/F#      G
  Já sei tudo de você
         A                  Bm
Se esqueceu que você mesma conta?
         D/F#  G
E eu só sofro mesmo

Em  D9     D/F#      G               
      Sei,   que eu não tenho direito
       A              D9
De exigir, te cobrar nada
D/F#      G                 A
  Só fala isso pro meu coração
                      Bm
Que está ardendo em brasa
     A    G
De ciúme louco


Fazendo amor de verdade cê chora
  A/C#   Bm       
Até me iludo naquele momento
    D/F#     G
Mas essa ilusão dura o tempo
     D/F#     
Que dura o prazer
       Em                A       Bm  A/C#
Outro fim de semana que perdi você

       D9
Esse amor tá com cara de esmola
   A/C#     Bm       
Parece que gosta de me ver sofrendo
    D/F#      G              D/F#
Se para o seu ego eu sou alimento
               Em      G        A
Saiba que pra mim você é muito mais

[Solo] D9  A/C#  Bm

    A         G              D/F#
Se para o seu ego eu sou alimento
               Em      G        A
Saiba que pra mim você é muito mais

Você é muito mais
                    D9  D/F#  G   G  D/F# D9
Do que os outros estão ten...do
Outros vídeos desta música
    7.474 exibições
      • ½ Tom
      • A
      • Bb
      • B
      • C
      • Db
      • D
      • Eb
      • E
      • F
      • F#
      • G
      • Ab
    • Adicionar à lista

    Afinação da cifra

    Afinador online

      0 comentários

      Ver todos os comentários

      Entre para o Cifra Club PRO

      Tenha acesso a benefícios exclusivos no App e no Site

      • Chega de anúncios

      • Badges exclusivas

      • Mais recursos no app do Afinador

      • Atendimento Prioritário

      • Aumente seu limite de lista

      • Ajude a produzir mais conteúdo

      Cifra Club Pro

      Aproveite o Cifra Club com benefícios exclusivos e sem anúncios
      Cifra Club Pro
      Aproveite o Cifra Club com benefícios exclusivos e sem anúncios
      OK