Notificações Amigos pendentes

      Fred & Gustavo

      Então Valeu

      207.806 exibições
      Tom: D# (com acordes na forma de C) Capotraste na 3ª casa
      
      Intro: C  G4/B  Am7  F
      E|---------3-----------3------------0-----1-|
      B|-----------1-----------1------------1---1-|
      G|------0------------0------------0-------2-|
      D|----2------------0------------2---------3-|
      A|--3------------2------------0-----------3-|
      E|----------------------------------------1-|
      
      
      C
       Te dei o meu amor, você não quis cuidar
      G4/B
       Eu senti o sabor da lágrima rolar
      Am7
       Agora senta aqui, você vai escutar
      F                       G
       Tudo que me fez sofrer, tudo que me fez passar
      
      C
       Ao encontrar você eu me perdi de mim
      G
       O que é que eu fui querer, por que te amei assim?
      Am
       Sem alma e coração, você é tão ruim
      F                     G                       ( F  C  F  G ) (Riff 1)
       E agora que eu to bem você quer voltar pra mim
      
      Refrão:
      C F G  C                                G
      Então valeu te ver assim pedindo pra voltar
                                    Am
      Valeu demais te ver no meu lugar
                                   F                   G
      Valeu te ver sofrer o que sofri chorar o que chorei
                C                                G
      Então valeu te ver, mas eu preciso te falar
                                       Am
      To bem melhor e alguém no seu lugar me faz feliz
                      F                G
      Que sabe me amar, então valeu demais te encontrar
      
      
      Solo: C  G  Am  F  G
      E|-----------------------------------------|
      B|--3-4-6-6h8--6-6h8--6-6h8--6-6-6h8-8p6-4-|
      G|-----------------------------------------|
      D|-----------------------------------------|
      A|-----------------------------------------|
      E|-----------------------------------------|
      
      
      E|-----------------------------------------|
      B|--4h6--4-4h6--4-4h6--4-4h6-6p4-4p3-------|
      G|-----------------------------------3h5---|
      D|-----------------------------------------|
      A|-----------------------------------------|
      E|-----------------------------------------|
      
      
      E|-------------------------------------------6-6-6h8-6--4p3-------|
      B|------4p3--------------3-4-4h6-6p4--6/8-----------------6-4-6/8-|
      G|--3h5-----5-3-3h5--3h5------------------------------------------|
      D|----------------------------------------------------------------|
      A|----------------------------------------------------------------|
      E|----------------------------------------------------------------|
      
      
      C
       Te dei o meu amor, você não quis cuidar
      G
       Eu senti o sabor da lágrima rolar
      Am
       Agora senta aqui, você vai escutar
      F                       G
       Tudo que me fez sofrer, tudo que me fez passar
      
      C
       Ao encontrar você eu me perdi de mim
      G
       O que é que eu fui querer, por que te amei assim?
      Am
       Sem alma e coração, você é tão ruim
      F                     G                       (F C F G) (Riff)
       E agora que eu to bem você quer voltar pra mim
      
      (Refrão 2x)
      C F G  C                                G
      Então valeu te ver assim pedindo pra voltar
                                    Am
      Valeu demais te ver no meu lugar
                                   F                   G
      Valeu te ver sofrer o que sofri chorar o que chorei
             C                                 G
      Então valeu te ver, mas eu preciso te falar
                                       Am
      To bem melhor e alguém no seu lugar me faz feliz
                      F                G                 C
      Que sabe me amar, então valeu demais te encontrar
      
      
      Solo Final: C  G  Am  F  C
      E|---------6---6-6-6p4p3--------6/8-6-------6/8-6------|
      B|-3-4-6------------------6-4----------9-8---------6h8-|
      G|-----------------------------------------------------|
      D|-----------------------------------------------------|
      A|-----------------------------------------------------|
      E|-----------------------------------------------------|
      
      
      Riff:
      
      E|-----------------|
      B|--8h9-8----------|
      G|--------10-8h10/-|
      D|-----------------|
      A|-----------------|
      E|-----------------|
      
        Composição: Fred / Gustavo / Marco Aurélio / Valéria CostaColaboração e revisão:
        • JSS

        Comentários 26

        140 .
        • Vinícius Vinícius: Em 11/01/2016 13:30

          o solo está como se a musica tivesse sem capo na terceira casa

        • lgguajajara lgguajajara: Em 21/11/2013 13:46

          BBCCBC
          Refrão em Ritmo de Arrocha

        • Gabi Gabi: Em 17/10/2013 21:43

          Eu to tocando com esse ritimo bbccbc

        • bruno.amaral.58367 bruno.amaral.58367: Em 12/09/2013 13:21

          alguem sabe o ritimo dela?

        • luhmalik luhmalik: Em 19/01/2013 18:48

          Mto bom, cadê a video-aula hein?

        • professorrobert professorrobert: Em 02/01/2013 02:00

          O solo esta um pouquinho errado no meio....

        • pedrimtwo pedrimtwo: Em 18/09/2012 20:35

          Ta na hora da video-aula...

        • xx_dudu_xx xx_dudu_xx: Em 11/09/2012 20:04

          puts cara precisa de uma video aula pra o solo de baixo ae eu num aprendi esses negocio de 4h6

        • Sérgio Sérgio: Em 23/08/2012 21:58

          toca a musica no solinho

        140 cancelar

        conseguiu tocar?

        • •••
        0:00 / 0:00

        Capítulos

          1 versão de violão dificuldade exibições contribuição e correção
          1 versão de guitarra dificuldade exibições contribuição e correção
          1 versão de cavaco dificuldade exibições contribuição e correção
          1 versão de teclado dificuldade exibições contribuição e correção
          play/pausefechar subir/descer velocidade
          6ª corda E5ª corda A4ª corda D3ª corda G2ª corda B1ª corda E
            acordes
            publicidade
            fechar
            ok