Cifra Club

Então Valeu

Fred & Gustavo

Cifra: Principal
exibições 221.988
Tom: D# (com acordes na forma de C) Capotraste na 3ª casa
Intro: C  G4/B  Am7  F
E|---------3-----------3------------0-----1-|
B|-----------1-----------1------------1---1-|
G|------0------------0------------0-------2-|
D|----2------------0------------2---------3-|
A|--3------------2------------0-----------3-|
E|----------------------------------------1-|

C
 Te dei o meu amor, você não quis cuidar
G4/B
 Eu senti o sabor da lágrima rolar
Am7
 Agora senta aqui, você vai escutar
F                       G
 Tudo que me fez sofrer, tudo que me fez passar

C
 Ao encontrar você eu me perdi de mim
G
 O que é que eu fui querer, por que te amei assim?
Am
 Sem alma e coração, você é tão ruim
F                     G                       ( F  C  F  G ) (Riff 1)
 E agora que eu to bem você quer voltar pra mim

Refrão:
C F G  C                                G
Então valeu te ver assim pedindo pra voltar
                              Am
Valeu demais te ver no meu lugar
                             F                   G
Valeu te ver sofrer o que sofri chorar o que chorei
          C                                G
Então valeu te ver, mas eu preciso te falar
                                 Am
To bem melhor e alguém no seu lugar me faz feliz
                F                G
Que sabe me amar, então valeu demais te encontrar

Solo: C  G  Am  F  G
E|-----------------------------------------|
B|--3-4-6-6h8--6-6h8--6-6h8--6-6-6h8-8p6-4-|
G|-----------------------------------------|
D|-----------------------------------------|
A|-----------------------------------------|
E|-----------------------------------------|

E|-----------------------------------------|
B|--4h6--4-4h6--4-4h6--4-4h6-6p4-4p3-------|
G|-----------------------------------3h5---|
D|-----------------------------------------|
A|-----------------------------------------|
E|-----------------------------------------|

E|-------------------------------------------6-6-6h8-6--4p3-------|
B|------4p3--------------3-4-4h6-6p4--6/8-----------------6-4-6/8-|
G|--3h5-----5-3-3h5--3h5------------------------------------------|
D|----------------------------------------------------------------|
A|----------------------------------------------------------------|
E|----------------------------------------------------------------|

C
 Te dei o meu amor, você não quis cuidar
G
 Eu senti o sabor da lágrima rolar
Am
 Agora senta aqui, você vai escutar
F                       G
 Tudo que me fez sofrer, tudo que me fez passar

C
 Ao encontrar você eu me perdi de mim
G
 O que é que eu fui querer, por que te amei assim?
Am
 Sem alma e coração, você é tão ruim
F                     G                       (F C F G) (Riff)
 E agora que eu to bem você quer voltar pra mim

(Refrão 2x)
C F G  C                                G
Então valeu te ver assim pedindo pra voltar
                              Am
Valeu demais te ver no meu lugar
                             F                   G
Valeu te ver sofrer o que sofri chorar o que chorei
       C                                 G
Então valeu te ver, mas eu preciso te falar
                                 Am
To bem melhor e alguém no seu lugar me faz feliz
                F                G                 C
Que sabe me amar, então valeu demais te encontrar

Solo Final: C  G  Am  F  C
E|---------6---6-6-6p4p3--------6/8-6-------6/8-6------|
B|-3-4-6------------------6-4----------9-8---------6h8-|
G|-----------------------------------------------------|
D|-----------------------------------------------------|
A|-----------------------------------------------------|
E|-----------------------------------------------------|

Riff:
E|-----------------|
B|--8h9-8----------|
G|--------10-8h10/-|
D|-----------------|
A|-----------------|
E|-----------------|
Acordes para:
    Composição: Fred / Gustavo / Marco Aurelio / Valéria CostaColaboração e revisão:
    • Jonathan Serena

    0 comentários

      mostrar mais comentários

      Conseguiu tocar?

      26tocaram0ainda não

      Grave um vídeo tocando Então Valeu e mande pra gente!

      00:00 / 00:00
      outros vídeos desta música
      repetirqualidadeautomática
      Outro vídeos desta música
        00:00 / 00:00
        automática
        OK