Cifra Club

Aprenda

All Right Now

Free

Cifra: Principal (violão e guitarra)
tom: D
Intro - A D A, D D D, A x2   

Intro: 

Intro/Verse
|----------------------------------
|--2---2-3 2---2--3-3-3-3---3-3-3-
|--2---2-2-2---2--2-2-0-0---2-2-2-   repet
|--2---2-4-2---2--4-4-4-4---4-4-4-
|--0---0-0-0 --0--0-0-0-0-0-0-0-0
|--------------------------------

         A        D   A
There she stood in the street,
Dsus2           D           A
Smiling from her head to her feet,
      A         D  A
I said Hey, what is this?
             Dsus2       D         A
Now baby, may be she's in need of a kiss.

         A              D    A
I said Hey, what is your name baby?
Dsus2       D              A
Maybe we can see things the same,
Dsus2                D       A
Now don't you wait or hesitate,
          Dsus2        D        A
Let's move before they raise the parking rate, Oh!

Chorus
|-------------------------------
|--5-5--------3---3-3---5-------
|--6-6--------4---2-2---6-------
|--7-7--------5---4-4---7-------
|-------2-4-0-------------------
|-------------------------------
A          G            D           A
All right now, Baby it's all right now,
A          G            D           A
all right now, baby it's all right now.

A   D         A          G   D7    A

Intro - A D A, D D D, A x2  

           D       A  D
I took her home to my place
Dsus2          D          A
Watching ev'ry move on her face,
         A                 D    A
She said Look, what's your game, baby?
        Dsus2     D         A
are you tryin' to put me in shame?

       A     D           A
I said slow, don't go so fast,
Dsus2           D             A
don't you think that love can last?
A              D    A
She said Love, Lord above,
Dsus2            D            A
now you're tryin' to trick me in love.

Chorus - - - 

Solo
|------------------------------
|------------------------------
|-2~--2h4-4b5rb4--2---2h4-4p2--
|------------------------------
|------------------------------
|------------------------------

|-----0-------------0-------------5-----------------
|-/5--5h7--7p5--/5--5h7--7p5--------------------/10-
|-----------------------------4b5---4-4b5rb4-2------
|---------------------------------------------------
|---------------------------------------------------
|---------------------------------------------------

|------------------------------------------
|------10------10-------10------10--10/14--
|-9h11----9h11-----9h11----9h11------------
|------------------------------------------
|------------------------------------------
|------------------------------------------

|------------------------------------------
|------10------10-------10------10--10/14--
|-9h11----9h11-----9h11----9h11------------
|------------------------------------------
|------------------------------------------
|------------------------------------------

|---------------------------------------------------------------
|--12b13-10-10-----10----12b13-10-10----10----12b13-10-10----10-
|---------------11-------------------11-------------------11----
|---------------------------------------------------------------
|---------------------------------------------------------------
|---------------------------------------------------------------

|--17-------17--------17--------17----------------17-20b22-17----17--------
|-----17h20-----17h20-----17h20----17h20--20b22---------------19----20b22--
|--------------------------------------------------------------------------
|--------------------------------------------------------------------------
|--------------------------------------------------------------------------
|--------------------------------------------------------------------------

|--17-------17--------17--------17----------------17-20b22-17----17--------
|-----17h20-----17h20-----17h20----17h20--20b22---------------19----20b22--
|--------------------------------------------------------------------------
|--------------------------------------------------------------------------
|--------------------------------------------------------------------------
|--------------------------------------------------------------------------

|--17-------17--------17--------17----------------17-20b22-17----17--------
|-----17h20-----17h20-----17h20----17h20--20b22---------------19----20b22--
|--------------------------------------------------------------------------
|--------------------------------------------------------------------------
|--------------------------------------------------------------------------
|--------------------------------------------------------------------------
Composição de Andy Fraser / Paul Rodgers
Colaboração e revisão:
  • Cleber Passoni
25.013 exibições
    • ½ Tom
    • A
    • Bb
    • B
    • C
    • Db
    • D
    • Eb
    • E
    • F
    • F#
    • G
    • Ab
  • Adicionar à lista

    0 comentários

    Ver todos os comentários

    Conseguiu tocar?

    4 Tocaram 0 Ainda não

    Grave um vídeo tocando All Right Now e nos envie!

    00:00 / 00:00
    outros vídeos desta música
    repetir qualidade Automático
    Outros vídeos desta música
    00:00 / 00:00
    Automático

    Cifra Club Pro

    Aproveite o Cifra Club com benefícios exclusivos e sem anúncios
    Cifra Club Pro
    Aproveite o Cifra Club com benefícios exclusivos e sem anúncios
    OK