Cifra Club

Once In A Lifeimte

Freestyle

Cifra: Principal (violão e guitarra)
tom: C
  Once in a lifetime
  Tabbed by Dave Javier
  Date: May 2, 2005
  Tunning: Standard mga pre!


  Intro: (mas maganda tunog nito kaysa sa mga gawa ng ibang tabbers DIYAN!)

e||--55555~-55--33333~-33--33333~-33--33333~-||
B||--33333~-33--33333~-33--33333~-33--33333~-|| kunin niyo lang yung
G||--22222~-22--00000~-00--00000~-00--00000~-||  timing ng pag
D||--00000~-00--22222~-22--00000~-00--00000~-||    strum!
A||-------------33333~-33--22222~-22--22222~-||
E||------------------------33333~-33--33333~-||

NOTE: dito na papasok yung "BASS" hindi po gitara yun
e||-33--33333-33333-33333-3333333~~L-----||
B||-33--33333-33333-33333-3333333~~E-----||
G||-00--00000-00000-00000-0000000~~T-----||
D||-00--22222-00000-22222-0000000~~RING--||
A||-22--33333-22222-33333-2222222~~------||
E||-33--00000-33333-00000-3333333~~------||

Verse 1:

e||--00000~-00--00000~-00--22222~-22--22222~-22--||   2x ito
B||--22222~-22--00000~-00--33333~-33--33333~-33--|| timingan niyo lang
G||--22222~-22--11111~-11--22222~-22--22222~-22--|| yung kanta
D||--22222~-22--22222~-22--44444~-44--00000~-00--||
A||--00000~-00--22222~-22--22222~-22-------------||
E||--00000~-00--00000~-00------------------------||

Refrain:

e||-22222~-22--00000~-00--22222~-22-000-00-|| 
B||-33333~-33--22222~-22--33333~-33-222-00-|| 
G||-22222~-22--22222~-22--22222~-22-222-11-|| 
D||-44444~-44--22222~-22--44444~-44-222-22-|| 
A||-22222~-22--00000~-00--22222~-22-000-22-|| 
E||-------------------------------------00-|| 
   *********
e||------2---22222~-22--00000~-00--22222~-2~~~--||
B||------2h3-33333~-33--22222~-22--33333~-3~~~--|| yung may (*) medyo
G||------2---22222~-22--22222~-22--22222~-2~~~--|| mabilis yung part 
D||----2-2h4-44444~-44--22222~-22--00000~-0~~~--||  na yun. timingan
A||-2h4--2---22222~-22--00000~-00---------------|| niyo lang 
E||---------------------------------------------||

Chorus: A-E-Bm7-D 2x yung lang (let ring sa dulo yung chords na "D")
Verse 2: same as verse 1
(Repeat Refrain)
Chorus: A-E-Bm7-D 2x
Bridge: 
       G-A 3X G-E (let ring dulo ulit ng "E")

CHORUS: (TATAAS NG 2 FRETS)
          B-F#m-C#m7-E 4X hanggang sa wakas (ng mundo hehe.. lol)


Eto yung Lead dun start ito pag katapos ng 2 beses ng 4x times sa Chorus: gets ba mga pre!
Ginawa ko na tong lead nato nung May 1 kahapon eh tagal lumabas kaya
Sinama ko na 'to dito, gets mga pre!

"Mas maganda ito kaysa kahapon" 
e||--------------------------------------||
B||--------------------------------------|| 2x ito mga pre
G||--4s11~~-11p9-9-8-6-9h11-9-8-6-4~~~~--|| tapos yung nasa baba 
D||--------------------------------------|| tapos tapos na! hehe
A||--------------------------------------|| just listen to
E||--------------------------------------||
                **************
e||--------------------------------------||
B||-------12-12b14-21b14-12b14-12--------|| yung may (*)
G||--11h13-----------------------13-11~~~||  timing at tiyaga
D||--------------------------------------|| kailangan dun mga tsong!
A||--------------------------------------||
E||--------------------------------------||

For Comments, Suggestion, Bomb threats, death threats:
Just send to *
Or add me on your friendster account
"Rate niyo to ha"
00:00 / 00:00
Outros vídeos desta música
Repetir
Outros vídeos desta música
Compositor não encontrado.
365 exibições
    • ½ Tom
    • A
    • Bb
    • B
    • C
    • Db
    • D
    • Eb
    • E
    • F
    • F#
    • G
    • Ab
  • Adicionar à lista

    0 comentários

    Ver todos os comentários

    Entre para oCifra Club PRO

    Tenha acesso a benefícios exclusivos no App e no Site

    • Chega de anúncios

    • Prioridade de compra em lançamentos

    • Mais recursos no app do Afinador

    • Atendimento Prioritário

    • Descontos nos produtos Cifra Club

    • Ajude a produzir mais conteúdo

    00:00 / 00:00

    Cifra Club Pro

    Aproveite o Cifra Club com benefícios exclusivos e sem anúncios
    Cifra Club Pro
    Aproveite o Cifra Club com benefícios exclusivos e sem anúncios
    OK