Cifra Club

Eu Preciso te Tirar do Sério

Frejat

Cifra: Principal (violão e guitarra)
Selo Cifra Club: esta cifra foi revisada para atender aos critérios oficiais da nossa Equipe de Qualidade.
tom: G
Intro: A (D  C  A)

A            G                     A
 Hoje eu acordei com vontade de te ver
 de te ver
                G  
 Foi uma noite longa
                          A
 Mas logo estaremos em algum lugar
                          G
 Aonde ninguém possa nos encontrar

D               C
 Olha o céu azul, estamos prontos pra cair na
    A 
 estrada
D                           C                   A
 Sempre na linha do horizonte, em direção ao sol

A               G
 Só penso em te encontrar
       D
 Eu preciso te tirar do sério   -> 2x
         A
 E desvendar os teus mistérios

...

A            G                       A
 Hoje eu acordei com vontade de esquecer
 de esquecer
                   G
 Todas as preocupações
                      A
 E ir depressa para algum lugar
                      G
 Aonde o tempo pareça não existir

D               C
 Olha o céu azul, estamos prontos pra viver um dia 
 A 
 belo
D                           C                   A
 Sempre na linha do horizonte, em direção ao sol

A               G
 Só penso em te encontrar      
       D                         
 Eu preciso te tirar do sério   -> 2x
         A
 E desvendar os teus mistérios 

Solo: A

E|-----------------------------------------------------------------
B|-----------------------------------------------------------------
G|----7^--------5--------------------------------------------------
D|----------------------7-5-7---5-7-7--5-7-7--5-7-7--5-7-7-7-7-5---
A|-----------------------------------------------------------------
E|-----------------------------------------------------------------

E|-----------------------------------------------------------------
B|---------------------------------8~----5/8----10-8----12^--12-10-
G|-----7^-------5------------5/9-----------------------------------
D|------------------7----5-----------------------------------------
A|-----------------------------------------------------------------
E|-----------------------------------------------------------------

E|-------------------------------------------------------12~---7~~--
B|-----5/8----10-8----12^--12-10--12/15~~--12^--10~~-----------5~~--
G|------------------------------------------------------------------
D|------------------------------------------------------------------
A|------------------------------------------------------------------
E|------------------------------------------------------------------


D              C
 Olha o céu azul, estamos prontos pra viver um dia 
 A 
 Belo
D                            C                  A
 Sempre na linha do horizonte, em direção ao sol

A               G
 Só penso em te encontrar      
       D                         
 Eu preciso te tirar do sério   -> 2x
         A
 E desvendar os teus mistérios 

A               G          D
 Só penso em te encontrar
       A 
 Eu preciso te tirar do sério
A               G          D
 Só penso em te encontrar
         A
 E desvendar os teus mistérios
00:00 / 00:00
Outros vídeos desta música
Repetir
Outros vídeos desta música
50.191 exibições
    • ½ Tom
    • A
    • Bb
    • B
    • C
    • Db
    • D
    • Eb
    • E
    • F
    • F#
    • G
    • Ab
  • Adicionar à lista

Afinação da cifra

Afinador online

    0 comentários

    Ver todos os comentários

    Entre para o Cifra Club PRO

    Tenha acesso a benefícios exclusivos no App e no Site

    • Chega de anúncios

    • Mais recursos no app do Afinador

    • Atendimento Prioritário

    • Aumente seu limite de lista

    • Ajude a produzir mais conteúdo

    00:00 / 00:00

    Cifra Club Pro

    Aproveite o Cifra Club com benefícios exclusivos e sem anúncios
    Cifra Club Pro
    Aproveite o Cifra Club com benefícios exclusivos e sem anúncios
    OK