Cifra Club

Túnel do Tempo

Frejat

Cifra: Principal
exibições 333.969
Tom: F
(guitarra - versos) (a guitarra soa estes acordes durante o verso)

   C       Am      Dm      F       A#   Ab   G
|-0~~0~| |0~~0~| |1~~1~| |1~~1~| |1~| |4~| |1~~1--1--1--|
|-1~~~1| |1~~~1| |3~~~3| |1~~~1| |3~| |4~| |0~~~0--0--0-|
|-0~~~~| |2~~~~| |2~~~~| |2~~~~| |3~| |5~| |0~~~~0--0---|
|-2~~~~| |2~~~~| |0~~~~| |3~~~~| |3~| |6~| |0~~~~~~~~~~~|
|-3~~~~| |0~~~~| |-----| |3~~~~| |1~| |6~| |2~~~~~~~~~~~|
|------| |-----| |-----| |1~~~~| |1~| |4~| |3~~~~~~~~~~~|

C
Nosso encontro aconteceu
     Am
Como eu imaginava
         Dm
Você não me reconheceu
        F
Mas fingiu que não era nada
    C
Eu sei que alguma coisa minha
     Am
Em você ficou guardada
          Dm
Como num filme mudo antes,
         F
Da invenção das palavras
    C               Am
Afinei os meu ouvidos
        Dm               F
Pra escutar suas chamadas
           C            Am
Sinais do corpo eu sei ler
              Dm                    F
Nas nossas conversas demoradas
        C          A#            Am
Mas há dias em que nada faz sentido
       Cm               F
E os sinais que me ligam ao mundo
       G
Se desligam
    C             Dm
Eu sei que uma rede invisível
 Em          F
Ira me salvar
         C      Dm
E que o impossível me espera
    Em       F
Do lado de lá
    C           Dm
Eu salto pro alto
Em              F
Eu vou em frente
C               Dm      F  G
De volta pro presente
   C
Sozinho no escuro
      Am
Nesse túnel do tempo
          Dm
Sigo o sinal que me liga
      F
A corrente dos sentimentos
 C                     Am
Onde se encontra a chave
    Dm                  F
Que me devolverá
C                    Am
O sentido das palavras
        Dm              F
Ou uma imagem familiar
           C       A#           Am
Mas há dias em que nada faz sentido
        Cm                  F      G
E os sinais que me ligam ao mundo se desligam....

(refrão)

(solo) C  Am  Dm  F (2x) G

E|-------------------------|-----------------------------------------|
B|-------------------------|-----------------------------------------|
G|----------------7~~~-----|----------------7b-----------------------|
D|--7--10--7-10---------10-|--7--10--7-10--------10------------------|
A|-------------------------|-----------------------------------------|
E|-------------------------|-----------------------------------------|

E|-------------------------|-----------------------------------------|
B|-------------------------|-----------------------------------------|
G|----------------7~~~-----|-----------------------------------------|
D|--7--10--7-10---------10-|--7/10--10--7/10--10---7-7/10------------|
A|-------------------------|-----------------------------------------|
E|-------------------------|-----------------------------------------|

E|-------------------------------------------------------------------|
B|------------------------------------------10h13-13-13-13h15-15--13-|
G|-----------------------9h12-12---12-9-12--------------------14~~---|
D|-10-10-7-10-7-10-7h10----------------------------------------------|
A|-------------------------------------------------------------------|
E|-------------------------------------------------------------------|

(refrão 2X)
Acordes para:

    0 comentários

      mostrar mais comentários

      Conseguiu tocar?

      12tocaram0ainda não

      Grave um vídeo tocando Túnel do Tempo e mande pra gente!

      00:00 / 00:00
      outros vídeos desta música
      repetirqualidadeautomática
      Outro vídeos desta música
        00:00 / 00:00
        automática
        OK