Cifra Club

Redenção

Fresno

Cifra: Principal (violão e guitarra)
tom: D
(afinação 1/2 abaixo)

E|-0-----------------------------------------|
B|---0---------------------------------------|
G|-----6-------------------------------------|
D|-------4-----------------------------------|
A|-------------------------------------------|
E|-------------------------------------------|

(baixo)
E|------------------------------------------------------------------------------------|
B|------------------------------------------------------------------------------------|
G|------------------------------------------------------------------------------------|
D|------------------------------------------------------------------------------------|
A|----------------------------------------------5-5-5-5-5-5-5-5--5-4-2-0-0------------|
E|2-2-2-0-2-2-2-0-2-0-2--2-2-2-0-2-2-2-0-2-0-2----------------------------------------|

F#m
Acorda de manhã
Procura o que vestir
        D
Já sabe aonde ir
(aonde eu nunca quis te levar)
F#m
O inverno está aí
Ele vem te buscar
       D
Ele te faz sorrir
(mas veste algo quente que o frio vai chegar)

   D               Bm
Desligue o rádio e a TV
     F#m
Porque no seu Domingo, eu vou aparecer
     D           Bm
Vai ser melhor para você viver.

  F#m
Ostenta ser feliz
Tudo que eu sempre quis
           D
Mas melhor se cuidar
(com toda a tristeza que posso levar)

    F#m
E é só pra te devolver
Lembre que é caro me esquecer
       D
Barato pra você
(Não tente me esquecer porque eu não vou deixar)

   D              Bm
Volte pra casa, vai chover
      F#m
Porque eu fiz seu Domingo desaparecer
    D              Bm        C#7
E nem querendo você vai viver longe de mim

(refrão)
            F#m             D           A
Se eu te disser que eu não vou mais voltar
(Você irá me procurar)
           F#m              D        A
Se eu te disser que eu não vou acordar
(Com quem você irá sonhar?)
           F#m              D            A
Se eu te disser que eu não vou mais mentir
               Bm  C#7
Não vá acreditar.

E|----------------------------------------|
B|--------------------------------777777--|
G|--------------------------------555555--|
D|--------------------------------444444--|
A|---------5----------2-------------------| (4x)
E|-0-2-4-0----0-2-4-0----0-2-3-0----------|

   D               Bm
Desligue o rádio e a TV
     F#m
Porque no seu Domingo, eu vou aparecer
     D           Bm                      F#m
Vai ser melhor para você viver longe de mim
D              Bm
Volte pra casa, vai chover
      F#m
Porque eu fiz seu Domingo desaparecer
    D              Bm        C#7
E nem querendo você vai viver longe de mim

(refrão 2x)
Composição de Lucas Silveira / Rodrigo Tavares
311.115 exibições
    • ½ Tom
    • A
    • Bb
    • B
    • C
    • Db
    • D
    • Eb
    • E
    • F
    • F#
    • G
    • Ab
  • Adicionar à lista

    0 comentários

    Ver todos os comentários

    Conseguiu tocar?

    33 Tocaram 1 Ainda não

    Grave um vídeo tocando Redenção e nos envie!

    00:00 / 00:00
    Outros vídeos desta música
    Repetir Qualidade Automático
    Outros vídeos desta música
    00:00 / 00:00
    Automático

    Cifra Club Pro

    Aproveite o Cifra Club com benefícios exclusivos e sem anúncios
    Cifra Club Pro
    Aproveite o Cifra Club com benefícios exclusivos e sem anúncios
    OK