Cifra Club

Floating In The Forth

Frightened Rabbit

Cifra: Principal (violão e guitarra)
Selo Cifra Club: esta cifra foi revisada para atender aos critérios oficiais da nossa Equipe de Qualidade.
tom: G
G     = 320033
Cadd9 = -32033
Dsus4 = --0233

[Intro tab] (relative to capo 4)

E|--3----------------------------------|
B|-----3---0---1---3---0---1---3-------|
G|-------------------------------------|
D|-------------------------------------|
A|-------------------------------------|
E|-------------------------------------|

E|--3-----------------------------3----|
B|-----3---0---1---3---0---0---3-------|
G|-------------------------------------|
D|-------------------------------------|
A|-------------------------------------|
E|-------------------------------------|

E|--3------------------7----3----------|
B|-----3---0---1---3------------3------|
G|-------------------------------------|
D|-------------------------------------|
A|-------------------------------------|
E|-------------------------------------|

E|-------------------------3---|
B|-0---1---3---0---1---3-------|
G|-----------------------------|
D|-----------------------------|
A|-----------------------------|
E|-----------------------------|

[Intro]
G

[Verse 1]
G
So you just stepped out
       Dsus4       Cadd9
Of the front of my house
         Dsus4     Cadd9
And I'll never see you again
G                         Dsus4
I closed my eyes for a second
    Cadd9     Dsus4
And when they opened
    Cadd9          G
You weren't there
G
And the door shut shut
         Dsus4      Cadd9
I was vacuum packed
 Dsus4            Cadd9
Shrink-wrapped out of air
G
And the spine collapsed
        Dsus4       Cadd9
And the eyes rolled back
   Dsus4       Cadd9       Dsus4
To stare at my starving brain


[Chorus]
          G                  Cadd9
And fully clothed, I float away
              Dsus4
(I'll float away)
         G                Cadd9
Down the Forth, into the sea
Cadd9
I think I'll save suicide for another day

[Instrumental]

G     Dsus4 Cadd9 Dsus4 Cadd9   x2

[Verse 2]
G
And I picture this corpse
         Dsus4 Cadd9
On  the  M8    hearse
      Dsus4        Cadd9
And I have found a way to sleep
G
On a rolled up coat
            Dsus
Against the window
         Cadd9         Dsus4
With the strobe of the sun
        Cadd9
And the life I've led
G
Am I ready to leap
         Dsus4     Cadd9
Is there peace beneath
    Dsus4       Cadd9
The roar of the Forth Road Bridge?
G
On the northern side
          Dsus4   Cadd9
There's a Fife of mine
      Dsus4       Cadd9       Dsus4
And a boat in the port for me


[Chorus]
         G                  Cadd9
Fully clothed, I'll float away
              Dsus4
(I'll float away)
         G                Cadd9   Dsus4
Down the Forth, into the sea
              G
I'll steer myself
                   Cadd9   Dsus4
Through chopping waves
          G
As manic gulls
        Cadd9       Dsus4
Scream "it's okay"
          G
Take your life
          Cadd9     Dsus4
Give it a shake
       G
Gather up
               Cadd9
All your loose change
Cadd9                                    G
I think I'll save suicide for another year

[Outro]

G  Cadd9 Dsus4 Cadd9   x3

G  Cadd9 Dsus4       Cadd9  G

[Intro tab] (Not relative to capo 4)

E|--7----------------------------------|
B|-----7---4---5---7---4---5---7-------|
G|-------------------------------------|
D|-------------------------------------|
A|-------------------------------------|
E|-------------------------------------|

E|--7-----------------------------7----|
B|-----7---4---5---7---4---5---7-------|
G|-------------------------------------|
D|-------------------------------------|
A|-------------------------------------|
E|-------------------------------------|

E|--7------------------11---7----------|
B|-----7---4---5---7------------7------|
G|-------------------------------------|
D|-------------------------------------|
A|-------------------------------------|
E|-------------------------------------|

E|---------------------7---|
B|-4---5---7---4---5-------|
G|-------------------------|
D|-------------------------|
A|-------------------------|
E|-------------------------|
Outros vídeos desta música
    9 exibições
      • ½ Tom
      • A
      • Bb
      • B
      • C
      • Db
      • D
      • Eb
      • E
      • F
      • F#
      • G
      • Ab
    • Adicionar à lista

    Afinação da cifra

    Afinador online

      0 comentários

      Ver todos os comentários

      Conseguiu tocar?

      0Tocaram0Ainda não

      Grave um vídeo tocando Floating In The Forth e nos envie!

      Toque também

      1. Imagem do artista IdlewildIn Remote Part \ Scottish Fiction Idlewild
      2. Imagem do artista The Twilight SadLast January The Twilight Sad
      3. Imagem do artista We Were Promised JetpacksA Half Built House We Were Promised Jetpacks
      4. Imagem do artista Admiral FallowSubbuteo Admiral Fallow

      Entre para o Cifra Club PRO

      Tenha acesso a benefícios exclusivos no App e no Site

      • Chega de anúncios

      • Badges exclusivas

      • Mais recursos no app do Afinador

      • Atendimento Prioritário

      • Aumente seu limite de lista

      • Ajude a produzir mais conteúdo

      Cifra Club Pro

      Aproveite o Cifra Club com benefícios exclusivos e sem anúncios
      Cifra Club Pro
      Aproveite o Cifra Club com benefícios exclusivos e sem anúncios
      Ops (: Contenido disponible sólo en portugués.
      OK