Cifra Club

Aprenda

Debate Sobre a Erva

Froid

Cifra: Principal (violão e guitarra)
tom: E
Intro (piano):

E|---------------------------------------------------------------------------------------------|
B|--2-----2------------2-----2----------------------------2--------5----------------------|
G|--2-----2------------2-----2--------------------2----------------------------------------|
D|--2-----4------------2-----4------------4------------------------------------------------|
A|--------------------------------------------------------------------------------------------|
E|---------------------------------------------------------------------------------------------|

E|--------------------------------------------------------------------------------------------|
B|--------------------2--------5-------------------------------------------------------------|
G|-----------2-------------------------------------------------------------------------------|
D|---4---------------------------------------------------------------------------------------|
A|--------------------------------------------------------------------------------------------|
E|--------------------------------------------------------------------------------------------|

E|---------------------------------------------------------------------------------------------|
B|--2-----2------------2-----2-----------------------2-------5-------------------2----5--|
G|--2-----2------------2-----2---------------2---------------------------------------------|
D|--2-----4------------2-----4----------------------------------------------4--------------|
A|---------------------------------------------------------------------------------------------|
E|---------------------------------------------------------------------------------------------|


*** A primeira parte é quase igual a intro, com uma pequena alteração***
3x
E|---------------------------------------------------------------------------------------------|
B|--2-----2------------2-----2-----------------2-----5------------------2-----5----------|
G|--2-----2------------2-----2------------2-------------------------2---------------------|
D|--2-----4------------2-----4-------------------------------------------------------------|
A|--------------------------------------------------------------------------------------------|
E|---------------------------------------------------------------------------------------------|

A proibição é um saco então
Drogas no saco e saco de drogas no saco e drogas no saco de pão

Drogas a vácuo e drogas na cara do século
Debaixo da barba do cego e na ponta do dedo da mão

Eu não!

Sou um exemplo
Eu deixo sequelas no feto
Eu misturo maconha com sexo
É um fato que aumenta o tesão
Eu confesso armas não matam pessoas
Pessoas machucam pessoas por drogas
Drogas machucam pessoas só por diversão

Algumas tem o fetish é o líbido
Quero uma mulher sexy e esperta igual a senhora smith
Com o hype da rihana
Não o da giseli bundchen
Maconha é um filme louco como "os outros" de nicole kidman

***Aqui também tem uma pequena alteração na tab***
E|---------------------------------------------------------------------------------------------|
B|--2-----2------------2-----2-------------------------------------------------------------|
G|--2-----2------------2-----2-----------2-----------------2------------------------------|
D|--2-----4------------2-----4-----------2------4----------2------4-----------------------|
A|---------------------------------------4------4----------4------4-----------------------|
E|----------------------------------------------2-----------------2-----------------------|

Eu sou um hipocrita odeio o pó que ta
No resto das notas pras crianças a escola dá
Bem mais opções que sua sacola dá
E ai que tá
E quem nao tem escolha sabe bem aonde essa rua dá



***Quando ele termina a palavra "dá", entra essa outra tab***

E|-----------------------------------------------------------------------------------------------|
B|-----------------------------------------------------------------------------------------------|
G|---------------------------------------------------------2-------------------2-----------|
D|-------------------2----------------------------2--------2-------4-----------2-----4------|
A|-------0----4----------------------0----4----------------4-------4-----------4-----4------|
E|---2---------------------------2---------------------------------2-----------------2-----|

***Aqui ele segue a tab abaixo, até terminar***

E|---------------------------------------------------------------------------------------------|
B|--2-----2------------2-----2----------------------------2--------5----------------------|
G|--2-----2------------2-----2--------------------2----------------------------------------|
D|--2-----4------------2-----4------------4------------------------------------------------|
A|--------------------------------------------------------------------------------------------|
E|---------------------------------------------------------------------------------------------|

E|--------------------------------------------------------------------------------------------|
B|--------------------2--------5-------------------------------------------------------------|
G|-----------2-------------------------------------------------------------------------------|
D|---4---------------------------------------------------------------------------------------|
A|--------------------------------------------------------------------------------------------|
E|--------------------------------------------------------------------------------------------|

O meu pai louco com os erros de loco abreu, emerson silva na moral vai tomar no seu
A cerveja que prometeu te acalmar

Quem sou eu pra julgar meu véio aposentado
Hoje pai sou eu

Então filha
Te botei em um colégio de família
Daqueles que só burguês pisa
Quando eu apresentei na reunião dos
Pais quis me aproximar
Mas acho que cavei sua armadilha, arapuca
Sabe a sua melhor amiga duda?
Não cola em casa e é toda minha culpa
Não autorizado pelo pai
One more time
Via ligação da secretaria de sua labuta!

Pai, tô vendo minhas escolhas de adolescente
Refletir em gente inocente com os
Dente de leite
Proibição que cega a mente de quem segue a mídia
E depois de velho tenho que fazer média?
Composição de Froid / Pedro Qualy
Colaboração e revisão:
  • HTemps gaming
  • Ulysses Verza
19.896 exibições
    • ½ Tom
    • A
    • Bb
    • B
    • C
    • Db
    • D
    • Eb
    • E
    • F
    • F#
    • G
    • Ab
  • Adicionar à lista

    0 comentários

    Ver todos os comentários

    Conseguiu tocar?

    1 Tocaram 7 Ainda não

    Grave um vídeo tocando Debate Sobre a Erva e nos envie!

    00:00 / 00:00
    outros vídeos desta música
    repetir qualidade Automático
    Outros vídeos desta música
    00:00 / 00:00
    Automático

    Cifra Club Pro

    Aproveite o Cifra Club com benefícios exclusivos e sem anúncios
    Cifra Club Pro
    Aproveite o Cifra Club com benefícios exclusivos e sem anúncios
    OK