Cifra Club

Amuleto

Gabriel Elias

Cifra: Principal (violão e guitarra)
tom: D
  D           A         Bm            G           D
E|----------------10-9------------------------------|
B|-----------10---------10--7---------7-------------|
G|7-9-9~11-9------------------9-7-7~9-------7-9-7~--|
D|--------------------------------------7h9---------|
A|--------------------------------------------------|
E|--------------------------------------------------|

  D          A     Bm             G
E|-----------------5-7-5--9-10-9--------------------|
B|-----7-----10~------------------~8--7-------------|
G|-7h9---7h9-------6-7-6--6-7-6----------7~9--7~----|
D|--------------------------------------------------|
A|--------------------------------------------------|
E|--------------------------------------------------|

   D                        A
Você é a brisa que o vento traz
            Bm
É o meu travesseiro
              G
Meu ponto de paz
A            D
Meu mundo inteiro
                  F#
Quem me faz rir á toa
                      Bm
A dona da vibe mais boa que tem
                 G
Meu amuleto da sorte
    A
Que só me atrai o bem

Bm    F#m   Em7         A4                 Bm
  Vem lá do céu o teu sorriso, isso eu bem sei
    F#m        Em7           A4       Bm     F#m
Vem cá, que eu perco o meu juízo ao beijar você
  Em7         A4
Serei o seu farol
C9                         A
Se algum dia não nascer o sol

D                        F#
Só você pra acelerar meu coração
              Bm          A           G
E me fazer sentir um caminhão de sentimentos bons 
D                     F#
Só você pra me fazer esquecer
             Bm                A         G         D/F# 
Tudo o que sofri por quem não soube me fazer melhor
    Em7        A4          D 
Com você, o Destino não é só!

( D  A  Bm  G )


-by Math
00:00 / 00:00
Outros vídeos desta música
Repetir
Outros vídeos desta música
Composição de Gabriel Elias
86.457 exibições
    • ½ Tom
    • A
    • Bb
    • B
    • C
    • Db
    • D
    • Eb
    • E
    • F
    • F#
    • G
    • Ab
  • Adicionar à lista

    0 comentários

    Ver todos os comentários

    Conseguiu tocar?

    18 Tocaram 4 Ainda não

    Grave um vídeo tocando Amuleto e nos envie!

    Entre para oCifra Club PRO

    Tenha acesso a benefícios exclusivos no App e no Site

    • Chega de anúncios

    • Prioridade de compra em lançamentos

    • Mais recursos no app do Afinador

    • Atendimento Prioritário

    • Descontos nos produtos Cifra Club

    • Ajude a produzir mais conteúdo

    00:00 / 00:00

    Cifra Club Pro

    Aproveite o Cifra Club com benefícios exclusivos e sem anúncios
    Cifra Club Pro
    Aproveite o Cifra Club com benefícios exclusivos e sem anúncios
    OK