Cifra Club

Piradinha

Gabriel Valim

Cifra: Principal
exibições 115.991
Tom: D#
Refrão:

 Cm
 Piri, pipiri, pipiri, piri piradinha
 Bb9
 Ela tá maluca ela da doidinha

 Cm
 Piri, pipiri, pipiri, piri piradinha
 Bb9
 Ela tá doidona, fora da casinha

Solo: Cm Bb9 (2x)

Parte 1:

E|-------------------------3---|
B|-----------------------4---4-|
G|-5-5-3-5-5-3-5-3-5-5-5-------|
D|-----------------------------|
A|-----------------------------|
E|-----------------------------|

Parte 2:

E|-----------------------------|
B|-------6-3-----------6-3-----|
G|-3-3-3-----3----3-3-3-----3--|
D|-----------------------------|
A|-----------------------------|
E|-----------------------------|

(repete as duas partes)

Primeira parte:

Cm
 Ela não anda, ela desfila
  Bb9
 Quando chega na festa arrasa na pista.
Cm
 A galera olha todo mundo que pegar
    Bb9
Mas ela tá de boa só querendo dançar

 G#
 Mas depois de um tempo
         Bb
 Bebe e fica piradinha
 G#
 Ela desce do salto
      Bb
 A gatinha perde a linha.

( Passagem pro refrão ) Bb9

E|-----------------------------|
B|--3-------6-4-3--------------|
G|----3---3-------3-5----------|
D|-----------------------------|
A|-----------------------------|
E|-----------------------------|

(Repete tudo)

(Refrão)

(Solo final) Cm Bb9 (4x)

(parte 1)

E|---------------3-3-----------|
B|-----------4-4---------------|
G|---5-5-5-5-------------------|
D|-----------------------------|
A|-----------------------------|
E|-----------------------------|

(parte 2)

E|-----------------------------|
B|---6-6-6-6-6-6-6-------------|
G|-----------------------------|
D|-----------------------------|
A|-----------------------------|
E|-----------------------------|

(parte 3)

E|---------------------------|
B|-6-6-6-6-6-6-6-6h8-8-------|
G|---------------------------|
D|---------------------------|
A|---------------------------|
E|---------------------------|

(parte 4)

E|-----------------------------|
B|---8p6-6-6---4p3-----6p4-3---|
G|-----------------3---------3-|
D|-----------------------------|
A|-----------------------------|
E|-----------------------------|

(parte 5)

E|-------------------------3---|
B|-----------------------4---4-|
G|-5-5-5-5-5-5-5-5-5-5-5-------|
D|-----------------------------|
A|-----------------------------|
E|-----------------------------|


(parte 6)

E|-----------------------------|
B|-------6-3------------6-3----|
G|-3-3-3-----3----3-3-3-----3--|
D|-----------------------------|
A|-----------------------------|
E|-----------------------------|

(repete a parte 5)

(parte 7)

E|-----------------------------|
B|-------6-3------------6-3----|
G|-3-3-3-----3----3-3-3--------|
D|-----------------------------|
A|-----------------------------|
E|-----------------------------|

0 comentários

    mostrar mais comentários

    Conseguiu tocar?

    14tocaram1ainda não

    Grave um vídeo tocando Piradinha e mande pra gente!

    00:00 / 00:00
    outros vídeos desta música
    repetirqualidadeautomática
    Outro vídeos desta música
      00:00 / 00:00
      automática
      OK