Cifra Club

Atos 2

Gabriela Rocha

Cifra: Principal
exibições 941.594
Tom: G
[Intro]  Em7  C9  G  Bm7
         Em7  C9  G  Bm7
         Em7  C9  G  Bm7
         Em7  C9  G  Bm7


       Em7              C9
Nós estamos aqui tão sedentos de Ti
        G            Bm7
Vem oh Deus, vem oh Deus
      Em7
Enche este lugar
       C9                  G          Bm7
Meu desejo é sentir Teu poder, Teu poder

[Solo]  Em7  C9  G  Bm7

       Em7              C9
Nós estamos aqui tão sedentos de Ti
        G            Bm7
Vem oh Deus, vem oh Deus
      Em7
Enche este lugar
       C9                  G          D11
Meu desejo é sentir Teu poder, Teu poder


       C9           Em7
Então vem me incendiar
         G       C9    D11
Meu coração é o Teu altar
         C9           Em7
Quero ouvir o som do céu
      G     C9     D11
Tua glória contemplar

[C9  Em7  G  C9  D11]


       Em7              C9
Nós estamos aqui tão sedentos de Ti
        G            Bm7
Vem oh Deus, vem oh Deus
      Em7
Enche este lugar
       C9                  G          D11
Meu desejo é sentir Teu poder, Teu poder


       C9           Em7
Então vem me incendiar
         G       C9    D11
Meu coração é o Teu altar
         C9           Em7
Quero ouvir o som do céu
      G     C9     D11
Tua glória contemplar

[Solo]  C9  Em7  G  C9  D11

          C9
Te damos honra
            Em7
Te damos glória
           G  C9               D11
Teu é o poder    pra sempre, amém


       C9           Em7
Então vem me incendiar
         G       C9    D11
Meu coração é o Teu altar
         C9           Em7
Quero ouvir o som do céu
      G     C9     D11
Tua glória contemplar

( C9 )

[Solo]



E|---------------------------------------------------|
B|----15-15----15-13-12-----15-15----15-13-12--------|
G|-12-------12-----------12-------12-----------------|
D|---------------------------------------------------|
A|---------------------------------------------------|
E|---------------------------------------------------|


E|----------------------------12---------------------|
B|----15-15----15-13-12------------------------------|
G|-12-------12----------12h14------------------------|
D|---------------------------------------------------|
A|---------------------------------------------------|
E|---------------------------------------------------|


[Solo Ponte]


E|---------------------------------------------------|
B|-5-5-5-8-5~--5-5-5-8-5~--8-8-10-12-8--12-10-8-10~--|
G|---------------------------------------------------|
D|---------------------------------------------------|
A|---------------------------------------------------|
E|---------------------------------------------------|

0 comentários

    mostrar mais comentários

    Conseguiu tocar?

    65tocaram8ainda não

    Grave um vídeo tocando Atos 2 e mande pra gente!

    00:00 / 00:00
    outros vídeos desta música
    repetirqualidadeautomática
    Outro vídeos desta música
      00:00 / 00:00
      automática
      OK