Cifra Club

Atos 2

Gabriela Rocha

Cifra: Principal (violão e guitarra)
exibições 1.766.079
Tom: Em
[Intro] Em7  C9  G  Bm7
        Em7  C9  G  Bm7

[Primeira Parte]

       Em7              C9
Nós estamos aqui tão sedentos de Ti
        G            Bm7
Vem oh Deus, vem oh Deus
      Em7
Enche este lugar
       C9                  G          Bm7
Meu desejo é sentir Teu poder, Teu poder

[Solo] Em7  C9  G  Bm7

E|----------------------------------------------------|
B|----15-15-----15-13-12-----15-15-----15-13-12-------|
G|-12--------12-----------12--------12----------------|
D|----------------------------------------------------|
A|----------------------------------------------------|
E|----------------------------------------------------|

E|-----------------------------12~--------------------|
B|----15-15-----15-13-12------------------------------|
G|-12--------12----------14---------------------------|
D|----------------------------------------------------|
A|----------------------------------------------------|
E|----------------------------------------------------|

       Em7              C9
Nós estamos aqui tão sedentos de Ti
        G            Bm7
Vem oh Deus, vem oh Deus
      Em7
Enche este lugar
       C9                  G          D9
Meu desejo é sentir Teu poder, Teu poder

[Refrão]

       C9           Em7
Então vem me incendiar
         G       C9    D9
Meu coração é o Teu altar
         C9           Em7
Quero ouvir o som do céu
      G     C9     D9
Tua glória contemplar

       C9           Em7
Então vem me incendiar
         G       C9    D9
Meu coração é o Teu altar
         C9           Em7
Quero ouvir o som do céu
      G     C9     D9
Tua glória contemplar

( C9  Em7  G  C9  D9 )

[Primeira Parte]

       Em7              C9
Nós estamos aqui tão sedentos de Ti
        G            Bm7
Vem oh Deus, vem oh Deus
      Em7
Enche este lugar
       C9                  G          D9
Meu desejo é sentir Teu poder, Teu poder

[Refrão]

       C9           Em7
Então vem me incendiar
         G       C9    D9
Meu coração é o Teu altar
         C9           Em7
Quero ouvir o som do céu
      G     C9     D9
Tua glória contemplar

       C9           Em7
Então vem me incendiar
         G       C9    D9
Meu coração é o Teu altar
         C9           Em7
Quero ouvir o som do céu
      G     C9     D9
Tua glória contemplar

[Solo] C9  Em7  G  C9  D9

E|----------------------------------------------------|
B|--5-5-5-8---5~----5-5-5-8---5~----------------------|
G|----------------------------------------------------|
D|----------------------------------------------------|
A|----------------------------------------------------|
E|----------------------------------------------------|

E|----------------------------------------------------|
B|--8-8-10-12---8~----12-10-8-10~---------------------|
G|----------------------------------------------------|
D|----------------------------------------------------|
A|----------------------------------------------------|
E|----------------------------------------------------|

[Ponte]

          C9
Te damos honra
           Em7
Te damos glória
           G  C9     
Teu é o poder    
              D9
Pra sempre, amém

          C9
Te damos honra
           Em7
Te damos glória
           G  C9     
Teu é o poder    
              D9
Pra sempre, amém

          C9
Te damos honra
           Em7
Te damos glória
           G  C9     
Teu é o poder    
              D9
Pra sempre, amém

[Refrão]

       C9           Em7
Então vem me incendiar
         G       C9    D9
Meu coração é o Teu altar
         C9           Em7
Quero ouvir o som do céu
      G     C9     D9
Tua glória contemplar

       C9           Em7
Então vem me incendiar
         G       C9    D9
Meu coração é o Teu altar
         C9           Em7
Quero ouvir o som do céu
      G     C9     D9
Tua glória contemplar

[Final] C9

0 comentários

mostrar mais comentários

Conseguiu tocar?

176 tocaram 51 ainda não

Grave um vídeo tocando Atos 2 e mande pra gente!

00:00 / 00:00
outros vídeos desta música
repetir qualidade Automático
Outros vídeos desta música
00:00 / 00:00
Automático
OK