Cifra Club

Atos 2

Gabriela Rocha

Cifra: Principal (violão e guitarra)
exibições 1.733.756
Tom: Em
[Intro]  Em7  C9  G  Bm7
         Em7  C9  G  Bm7

       Em7              C9
Nós estamos aqui tão sedentos de Ti
        G            Bm7
Vem oh Deus, vem oh Deus
      Em7
Enche este lugar
       C9                  G          Bm7
Meu desejo é sentir Teu poder, Teu poder

[Solo] Em7  C9  G  Bm7

E|---------------------------------------------------|
B|----15-15-15-13-12-----15-15-15-13-12--------------|
G|-12-----------------12----------------12-----------|
D|---------------------------------------------------|
A|---------------------------------------------------|
E|---------------------------------------------------|

E|---------------------------------------------------|
B|----15-15-15---15-13-12----------------------------|
G|-12----------12----------12h14-12------------------|
D|---------------------------------------------------|
A|---------------------------------------------------|
E|---------------------------------------------------|


       Em7              C9
Nós estamos aqui tão sedentos de Ti
        G            Bm7
Vem oh Deus, vem oh Deus
      Em7
Enche este lugar
       C9                  G          D11
Meu desejo é sentir Teu poder, Teu poder

       C9           Em7
Então vem me incendiar
         G       C9    D11
Meu coração é o Teu altar
         C9           Em7
Quero ouvir o som do céu
      G     C9     D11
Tua glória contemplar

       C9           Em7
Então vem me incendiar
         G       C9    D11
Meu coração é o Teu altar
         C9           Em7
Quero ouvir o som do céu
      G     C9     D11
Tua glória contemplar

( C9  Em7  G  C9  D11 )

       Em7              C9
Nós estamos aqui tão sedentos de Ti
        G            Bm7
Vem oh Deus, vem oh Deus
      Em7
Enche este lugar
       C9                  G          D11
Meu desejo é sentir Teu poder, Teu poder

       C9           Em7
Então vem me incendiar
         G       C9    D11
Meu coração é o Teu altar
         C9           Em7
Quero ouvir o som do céu
      G     C9     D11
Tua glória contemplar

       C9           Em7
Então vem me incendiar
         G       C9    D11
Meu coração é o Teu altar
         C9           Em7
Quero ouvir o som do céu
      G     C9     D11
Tua glória contemplar

[Solo] C9  Em7  G  C9  D11

E|---------------------------------------------------|
B|-5-5-5-8-5~--5-5-5-8-5~--8-8-10-12-8--12-10-8-10~--|
G|---------------------------------------------------|
D|---------------------------------------------------|
A|---------------------------------------------------|
E|---------------------------------------------------|

          C9
Te damos honra
            Em7
Te damos glória
           G  C9               D11
Teu é o poder    pra sempre, amém

          C9
Te damos honra
            Em7
Te damos glória
           G  C9               D11
Teu é o poder    pra sempre, amém

          C9
Te damos honra
            Em7
Te damos glória
           G  C9               D11
Teu é o poder    pra sempre, amém

       C9           Em7
Então vem me incendiar
         G       C9    D11
Meu coração é o Teu altar
         C9           Em7
Quero ouvir o som do céu
      G     C9     D11
Tua glória contemplar

       C9           Em7
Então vem me incendiar
         G       C9    D11
Meu coração é o Teu altar
         C9           Em7
Quero ouvir o som do céu
      G     C9     D11
Tua glória contemplar

( C9 )

0 comentários

mostrar mais comentários

Conseguiu tocar?

152 tocaram 42 ainda não

Grave um vídeo tocando Atos 2 e mande pra gente!

00:00 / 00:00
outros vídeos desta música
repetir qualidade Automático
Outro vídeos desta música
00:00 / 00:00
Automático
OK