Cifra Club

Céu

Gabriela Rocha

Cifra: Principal (violão e guitarra)
Tom: F
[Intro] C

[Riff 1]

E|----------------------------------------------|
B|----------------------------------------------|
G|---------2---3--------2--3--2--------2--------|
D|5--2---5-------5---5-----------5--3-----------|
A|----------------------------------------------|
E|----------------------------------------------|

[Riff 2]

E|-------------------------------------|
B|-------------------------------------|
G|-------------------------------------|
D|5--2------3--0----3--2---------------|
A|------------------------5--3--0------|
E|-------------------------------------|

  C                Gm7              Bb       F
   Ele vestido em glória está passando por aqui
C            Gm7              Bb       F
 Sinto o Seu perfume, o Seu Espírito fluir

 C      Gm7              Bb             F
Jesus, majestoso, eu me prostro ante a ti
C       Gm7               Bb          F
Cristo, glorioso, venha o Teu reino aqui

( C  Gm7  Bb   F )

   C              Gm7              Bb        F
   Ele vestido em glória está passando por aqui
 C           Gm7              Bb       F
 Sinto o Seu perfume, o Seu Espírito fluir

 C     Gm7              Bb              F
Jesus, majestoso, eu me prostro ante a Ti
   C     Gm7              Bb          F
Cristo, glorioso, venha o Teu Reino aqui

( C  Gm7  Bb   F )

 C     Gm7    Bb         F
Santo, santo, santo é o rei

 C       Gm7              Bb            F
Jesus, majestoso, eu me prostro ante a Ti
 C        Gm7             Bb          F
Cristo, glorioso, venha o Teu reino aqui
exibições 107.935
Acordes para:
    Composição: Gabriela Rocha / Hananiel Eduardo Colaboração e revisão:

    0 comentários

    mostrar mais comentários

    Conseguiu tocar?

    23 tocaram 5 ainda não

    Grave um vídeo tocando Céu e mande pra gente!

    00:00 / 00:00
    outros vídeos desta música
    repetir qualidade Automático
    Outros vídeos desta música
    00:00 / 00:00
    Automático
    OK