Enviar cifraEntrar

Desperta (Wake)

Gabriela Rocha

Cifra: Principal
exibições 40.865
Tom: G
Intro: C  D  Bm  Em


E|------------------------------------|  3x
B|------------------------------------|
G|---------------7-7------------------| 
D|-7/9-9-9-7-9-9----------------------|
A|------------------10-10-9-9-7-7-----|
E|------------------------------------| 


E|------------------------------------| 
B|------------------------------------|
G|---------------7-7-9-9-11-11-12-12--| 
D|-7/9-9-9-7-9-9----------------------|
A|------------------------------------|
E|------------------------------------| 


    C           D              Bm          Em
Ao despertar eu cantarei, teu nome eu proclamarei
    C           D              Bm          Em
No ritmo do teu coração, levarei a salvação
    C                       D
Teu fogo em meu olhar brilhando está
   Bm            Em
A chama não se apagará
     C             D
Nas ruas do amor refletirá
     Bm            Em
Tua glória resplandecerá

 C                      D
tu jamais me deixarás, em minha vida estás
  Bm                    Em
Este amor em meus ser, para sempre brilhará   (2x)

Ponte: C  D  Bm  Em (2x)

 C                D
Tu vives em mim, vives em mim
Bm          Em
Em meu coração pra sempre     

Passagem: C  D  Bm  Em (2x)

 C             D
Pra sempre, pra sempre
Bm            Em
Pra sempre, nesse amor

Final: Intro
  • 1
  • 2
  • 3
  • 4
  • 5
  • 6
  • 7
  • 8
  • 9
  • 10
  • 11
  • 12
    Acordes para:

      0 comentários

        mostrar mais comentários

        Conseguiu tocar?

        9tocaram0ainda não

        Grave um vídeo tocando Desperta (Wake) e mande pra gente!

        00:00 / 00:00
        outros vídeos desta música
        repetirqualidadeautomática
        • automática
        Outro vídeos desta música
          00:00 / 00:00
          automática
          • automática
          Acordes para:violão e guitarra
          dificuldadeexibiçõescontribuições
          fecharplay/pause subir/descer velocidade
            acordes
            fechar
            OK
            Feedback