Cifra Club

Aprenda

Leão

Gabriela Rocha

Cifra: Principal (violão e guitarra)
Tom: A
[Intro] E  A  C#m  A

Parte 1 de 4

   E               E
E|-----7---------------7----------------|
B|-------10-9-7----------10-9-7---------|
G|-9-9----------9--9-9----------9-------|
D|--------------------------------------|
A|--------------------------------------|
E|--------------------------------------|

Parte 2 de 4

   A               A
E|-----7---------------7----------------|
B|-------10-9-7----------10-9-7---------|
G|-9-9----------9--9-9----------9-------|
D|--------------------------------------|
A|--------------------------------------|
E|--------------------------------------|

Parte 3 de 4

   C#m             C#m
E|-----7---------------7----------------|
B|-------10-9-7----------10-9-7---------|
G|-9-9----------9--9-9----------9-------|
D|--------------------------------------|
A|--------------------------------------|
E|--------------------------------------|

Parte 4 de 4

   A               A
E|-----7---------------7----------------|
B|-------10-9-7----------10-9-7---------|
G|-9-9----------9--9-9----------9-------|
D|--------------------------------------|
A|--------------------------------------|
E|--------------------------------------|

[Primeira Parte]

          E                                                                               
Abram as portas                                                                     
 A                C#m A                             
Para que entre o rei                                                                                             
        E
O invencível
 A                   C#m
Senhor das guerras, Jesus
              A
Seu nome é Jesus

[Pré-Refrão]

 B          C#m                A
Já posso ouvir o seu rugido aqui
B         C#m                A
Em teu nome os gigantes cairão        
 B          C#m                A
Já posso ouvir o seu rugido aqui
B         C#m                A
Em teu nome os gigantes cairão    

[Refrão]

 A         C#m  B
Meu Deus é o leão
             C#m A
Da tribo de Judá
              C#m
A morte não venceu
B
Ele é o rei
B        C#m
Ele é o rei

( E  A  C#m  A )

[Pré-Refrão]

 B          C#m                A
Já posso ouvir o seu rugido aqui
B         C#m                A
Em teu nome os gigantes cairão        
 B          C#m                A
Já posso ouvir o seu rugido aqui
B         C#m                A
Em teu nome os gigantes cairão    
 
[Refrão]

 A         C#m  B
Meu Deus é o leão
             C#m A
Da tribo de Judá
              C#m
A morte não venceu
B
Ele é o rei
B        C#m
Ele é o rei

( A  C#m  B  E  A )    
( A  C#m  B  E  A )                                                                                                                                                                      

[Interlúdio]

A
Ouço seus passos
    C#m
Sim, Ele vem
  B
Clamo o seu nome 
 E
Não temerei
 A
Sinto o seu fogo
  C#m
Queimando aqui
B
O rei chegou
           E
O rei chegou

[Refrão]

 A         C#m  B
Meu Deus é o leão
             C#m A
Da tribo de Judá
              C#m
A morte não venceu
B
Ele é o rei
B        C#m
Ele é o rei
Composição de Gabriela Rocha / Hananiel Eduardo
Colaboração e revisão:
  • Gabriel Silva
  • Uesilla Cruz
  • junio santos
2.578 exibições
    • ½ Tom
    • A
    • Bb
    • B
    • C
    • Db
    • D
    • Eb
    • E
    • F
    • F#
    • G
    • Ab
  • Adicionar à lista

    0 comentários

    Mostrar mais comentários
    00:00 / 00:00
    outros vídeos desta música
    repetir qualidade Automático
    Outros vídeos desta música
    00:00 / 00:00
    Automático
    OK