Cifra Club

Aprenda

How do You Feel Today?

Gabrielle Aplin

Cifra: Principal (violão e guitarra)
Tom: G
Tuning: E-G-D-G-B-d

[Intro e Versos]

D|--------------------|---------------------|-------------------|------------------|
B|--0-----------------|--0------------------|--1----------------|--0---------------|
G|---------0---0------|----------0---0------|----------0---0----|---------0---0----|
D|------0----0--------|------0----0---------|------2----2-------|------0---0-------|
G|--0-----------------|--0------------------|--0----------------|--0---------------|
E|--------------------|---------------------|-------------------|------------------|

D|--------------------|--------------------|--------------------|------------------|
B|--3-----------------|--1-----------------|--0-----------------|--0---------------|
G|----------0---0-----|----------0---0-----|----------0---0-----|---------0---0----|
D|------4----4--------|------2----2--------|------0----0--------|------0---0-------|
G|--0-----------------|--0-----------------|--0-----------------|--0---------------|
E|--------------------|--------------------|--------------------|------------------|

[Refrão]

        How             do              you             feel
D|--------------------|--------------------|--------------------|------------------|
B|--12----------------|--10----------------|--8-----------------|--7---------------|
G|---------0---0------|---------0---0------|----------0---0-----|---------0---0----|
D|------12--12--------|------10--10--------|------9----9--------|------7---7-------|
G|--0-----------------|--0-----------------|--0-----------------|--0---------------|
E|--------------------|--------------------|--------------------|------------------|

        today
D|--------------------|--------------------|--------------------|------------------|
B|---5----------------|---5----------------|---5----------------|--5---------------|
G|-----------0---0----|-----------0----0---|-----------0----0---|---------0----0---|
D|-------5----5-------|---------5---5------|-------5----5-------|-------5--5-------|
G|---5----------------|-----5--------------|---5----------------|---5--------------|
E|--------------------|--------------------|--------------------|------------------|

        How             do              you             feel
D|--------------------|--------------------|--------------------|-------------------|
B|--12----------------|--10----------------|--8-----------------|--7----------------|
G|---------0---0------|---------0---0------|----------0---0-----|---------0---0-----|
D|------12--12--------|------10--10--------|------9----9--------|------7---7--------|
G|--0-----------------|--0-----------------|--0-----------------|--0----------------|
E|--------------------|--------------------|--------------------|-------------------|

        today
D|--------------------|--------------------|--------------------|-------------------|
B|---5----------------|---5----------------|---5----------------|--7----------------|
G|-----------0---0----|-----------0----0---|-----------0----0---|---------0----0----|
D|-------5----5-------|---------5---5------|-------5----5-------|-------7--7--------|
G|---5----------------|-----5--------------|---5----------------|---7---------------|
E|--------------------|--------------------|--------------------|-------------------|

cause tonight   Im closing              all the                 doors
D|--------------------|--------------------|--------------------|-------------------|
B|--8-----------------|--7-----------------|--3-----------------|--5----------------|
G|----------0---0-----|----------0---0-----|----------0---0-----|---------0---0-----|
D|------9----9--------|------0----0--------|------4----4--------|------5---5--------|
G|--9-----------------|--7-----------------|--4-----------------|--5----------------|
E|--------------------|--------------------|--------------------|-------------------|

So stay         outside or lay down     with our        flaws
D|--------------------|--------------------|--------------------|-------------------|
B|--8-----------------|--7-----------------|--3-----------------|--5----------------|
G|----------0---0-----|----------0---0-----|----------0---0-----|---------0---0-----|
D|------9----9--------|------0----0--------|------4----4--------|------5---5--------|
G|--9-----------------|--7-----------------|--4-----------------|--5----------------|
E|--------------------|--------------------|--------------------|-------------------|

        How             do              you             feel
D|--------------------|--------------------|--------------------|-------------------|
B|--12----------------|--10----------------|--8-----------------|--7----------------|
G|---------0---0------|---------0---0------|----------0---0-----|---------0---0-----|
D|------12--12--------|------10--10--------|------9----9--------|------7---7--------|
G|--0-----------------|--0-----------------|--0-----------------|--0----------------|
E|--------------------|--------------------|--------------------|-------------------|

[Versos]

D|--------------------|---------------------|-------------------|------------------|
B|--0-----------------|--0------------------|--1----------------|--0---------------|
G|---------0---0------|----------0---0------|----------0---0----|---------0---0----|
D|------0----0--------|------0----0---------|------2----2-------|------0---0-------|
G|--0-----------------|--0------------------|--0----------------|--0---------------|
E|--------------------|---------------------|-------------------|------------------|

D|--------------------|--------------------|--------------------|------------------|
B|--3-----------------|--1-----------------|--0-----------------|--0---------------|
G|----------0---0-----|----------0---0-----|----------0---0-----|---------0---0----|
D|------4----4--------|------2----2--------|------0----0--------|------0---0-------|
G|--0-----------------|--0-----------------|--0-----------------|--0---------------|
E|--------------------|--------------------|--------------------|------------------|

[Refrão]

        How             do              you             feel
D|--------------------|--------------------|--------------------|------------------|
B|--12----------------|--10----------------|--8-----------------|--7---------------|
G|---------0---0------|---------0---0------|----------0---0-----|---------0---0----|
D|------12--12--------|------10--10--------|------9----9--------|------7---7-------|
G|--0-----------------|--0-----------------|--0-----------------|--0---------------|
E|--------------------|--------------------|--------------------|------------------|

        today
D|--------------------|--------------------|--------------------|------------------|
B|---5----------------|---5----------------|---5----------------|--5---------------|
G|-----------0---0----|-----------0----0---|-----------0----0---|---------0----0---|
D|-------5----5-------|---------5---5------|-------5----5-------|-------5--5-------|
G|---5----------------|-----5--------------|---5----------------|---5--------------|
E|--------------------|--------------------|--------------------|------------------|

        How             do              you             feel
D|--------------------|--------------------|--------------------|-------------------|
B|--12----------------|--10----------------|--8-----------------|--7----------------|
G|---------0---0------|---------0---0------|----------0---0-----|---------0---0-----|
D|------12--12--------|------10--10--------|------9----9--------|------7---7--------|
G|--0-----------------|--0-----------------|--0-----------------|--0----------------|
E|--------------------|--------------------|--------------------|-------------------|

        today
D|--------------------|--------------------|--------------------|-------------------|
B|---5----------------|---5----------------|---5----------------|--7----------------|
G|-----------0---0----|-----------0----0---|-----------0----0---|---------0----0----|
D|-------5----5-------|---------5---5------|-------5----5-------|-------7--7--------|
G|---5----------------|-----5--------------|---5----------------|---7---------------|
E|--------------------|--------------------|--------------------|-------------------|

cause tonight   Im closing              all the                 doors
D|--------------------|--------------------|--------------------|-------------------|
B|--8-----------------|--7-----------------|--3-----------------|--5----------------|
G|----------0---0-----|----------0---0-----|----------0---0-----|---------0---0-----|
D|------9----9--------|------0----0--------|------4----4--------|------5---5--------|
G|--9-----------------|--7-----------------|--4-----------------|--5----------------|
E|--------------------|--------------------|--------------------|-------------------|

So stay         outside or lay down     with our        flaws
D|--------------------|--------------------|--------------------|-------------------|
B|--8-----------------|--7-----------------|--3-----------------|--5----------------|
G|----------0---0-----|----------0---0-----|----------0---0-----|---------0---0-----|
D|------9----9--------|------0----0--------|------4----4--------|------5---5--------|
G|--9-----------------|--7-----------------|--4-----------------|--5----------------|
E|--------------------|--------------------|--------------------|-------------------|

        How             do              you             feel
D|--------------------|--------------------|--------------------|-------------------|
B|--12----------------|--10----------------|--8-----------------|--7----------------|
G|---------0---0------|---------0---0------|----------0---0-----|---------0---0-----|
D|------12--12--------|------10--10--------|------9----9--------|------7---7--------|
G|--0-----------------|--0-----------------|--0-----------------|--0----------------|
E|--------------------|--------------------|--------------------|-------------------|

[Bridge]
D|--------------------|--------------------|--------------------|--------------------|
B|--0-----------------|--0-----------------|--0-----------------|--0-----------------|
G|----------0---0-----|----------0---0-----|----------0---0-----|---------0---0------|
D|------0----0--------|------0----0--------|------0----0--------|------0---0---------|
G|--0-----------------|--0-----------------|--0-----------------|--0-----------------|
E|--------------------|--------------------|--------------------|--------------------|

(Ive seen the glory but it wasnt enough)
D|--------------------|--------------------|--------------------|--------------------|
B|--1-----------------|--3-----------------|--0-----------------|--0-----------------|
G|----------0---0-----|----------0---0-----|----------0---0-----|---------0---0------|
D|------2----2--------|------4----4--------|------0----0--------|------0---0---------|
G|--2-----------------|--4-----------------|--0-----------------|--0-----------------|
E|--------------------|--------------------|--------------------|--------------------|

(Those songs and bells they were the laughter of guns)
D|--------------------|--------------------|--------------------|--------------------|
B|--1-----------------|--3-----------------|--0-----------------|--0-----------------|
G|----------0---0-----|----------0---0-----|----------0---0-----|---------0---0------|
D|------2----2--------|------4----4--------|------0----0--------|------0---0---------|
G|--2-----------------|--4-----------------|--0-----------------|--0-----------------|
E|--------------------|--------------------|--------------------|--------------------|

(I knew your story, I knew it was lo-o-ve)(watch a video for the rhythm)
D|--------------------|--------------------|--------------------|--------------------|
B|--1-----------------|--3-----------------|--8---------7-------|--5-----------------|
G|----------0---0-----|----------0---0-----|---------0--------0-|---------0----0-----|
D|------2----2--------|------4----4--------|------9---------0---|------5---5---------|
G|--2-----------------|--4-----------------|--0---------7-------|--5-----------------|
E|--------------------|--------------------|--------------------|--------------------|

|--------------------|
|--5-----------------|
|---------0----0-----|
|------5---5---------|
|--5-----------------|
|--------------------|

(Those songs and bells were the laughter of guns)
D|--------------------|--------------------|--------------------|--------------------|
B|--1-----------------|--3-----------------|--5-----------------|--0-----------------|
G|----------0---0-----|----------0---0-----|----------0---0-----|---------0---0------|
D|------2----2--------|------4----4--------|------5----5--------|------0---0---------|
G|--2-----------------|--4-----------------|--5-----------------|--0-----------------|
E|--------------------|--------------------|--------------------|--------------------|

[Versos]

D|--------------------|---------------------|-------------------|------------------|
B|--0-----------------|--0------------------|--1----------------|--0---------------|
G|---------0---0------|----------0---0------|----------0---0----|---------0---0----|
D|------0----0--------|------0----0---------|------2----2-------|------0---0-------|
G|--0-----------------|--0------------------|--0----------------|--0---------------|
E|--------------------|---------------------|-------------------|------------------|

D|--------------------|--------------------|--------------------|------------------|
B|--3-----------------|--1-----------------|--0-----------------|--0---------------|
G|----------0---0-----|----------0---0-----|----------0---0-----|---------0---0----|
D|------4----4--------|------2----2--------|------0----0--------|------0---0-------|
G|--0-----------------|--0-----------------|--0-----------------|--0---------------|
E|--------------------|--------------------|--------------------|------------------|

[Refrão]

        How             do              you             feel
D|--------------------|--------------------|--------------------|------------------|
B|--12----------------|--10----------------|--8-----------------|--7---------------|
G|---------0---0------|---------0---0------|----------0---0-----|---------0---0----|
D|------12--12--------|------10--10--------|------9----9--------|------7---7-------|
G|--0-----------------|--0-----------------|--0-----------------|--0---------------|
E|--------------------|--------------------|--------------------|------------------|

        today
D|--------------------|--------------------|--------------------|------------------|
B|---5----------------|---5----------------|---5----------------|--5---------------|
G|-----------0---0----|-----------0----0---|-----------0----0---|---------0----0---|
D|-------5----5-------|---------5---5------|-------5----5-------|-------5--5-------|
G|---5----------------|-----5--------------|---5----------------|---5--------------|
E|--------------------|--------------------|--------------------|------------------|

        How             do              you             feel
D|--------------------|--------------------|--------------------|-------------------|
B|--12----------------|--10----------------|--8-----------------|--7----------------|
G|---------0---0------|---------0---0------|----------0---0-----|---------0---0-----|
D|------12--12--------|------10--10--------|------9----9--------|------7---7--------|
G|--0-----------------|--0-----------------|--0-----------------|--0----------------|
E|--------------------|--------------------|--------------------|-------------------|

        today
D|--------------------|--------------------|--------------------|-------------------|
B|---5----------------|---5----------------|---5----------------|--7----------------|
G|-----------0---0----|-----------0----0---|-----------0----0---|---------0----0----|
D|-------5----5-------|---------5---5------|-------5----5-------|-------7--7--------|
G|---5----------------|-----5--------------|---5----------------|---7---------------|
E|--------------------|--------------------|--------------------|-------------------|

cause tonight   Im closing              all the                 doors
D|--------------------|--------------------|--------------------|-------------------|
B|--8-----------------|--7-----------------|--3-----------------|--5----------------|
G|----------0---0-----|----------0---0-----|----------0---0-----|---------0---0-----|
D|------9----9--------|------0----0--------|------4----4--------|------5---5--------|
G|--9-----------------|--7-----------------|--4-----------------|--5----------------|
E|--------------------|--------------------|--------------------|-------------------|

So stay         outside or lay down     with our        flaws
D|--------------------|--------------------|--------------------|-------------------|
B|--8-----------------|--7-----------------|--3-----------------|--5----------------|
G|----------0---0-----|----------0---0-----|----------0---0-----|---------0---0-----|
D|------9----9--------|------0----0--------|------4----4--------|------5---5--------|
G|--9-----------------|--7-----------------|--4-----------------|--5----------------|
E|--------------------|--------------------|--------------------|-------------------|

        How             do              you             feel
D|--------------------|--------------------|--------------------|-------------------|
B|--12----------------|--10----------------|--8-----------------|--7----------------|
G|---------0---0------|---------0---0------|----------0---0-----|---------0---0-----|
D|------12--12--------|------10--10--------|------9----9--------|------7---7--------|
G|--0-----------------|--0-----------------|--0-----------------|--0----------------|
E|--------------------|--------------------|--------------------|-------------------|

[Final]

D|--------------------|---------------------|-------------------|------------------|
B|--0-----------------|--0------------------|--1----------------|--0---------------|
G|---------0---0------|----------0---0------|----------0---0----|---------0---0----|
D|------0----0--------|------0----0---------|------2----2-------|------0---0-------|
G|--0-----------------|--0------------------|--0----------------|--0---------------|
E|--------------------|---------------------|-------------------|------------------|

D|--------------------|--------------------|--------------------|------------------|
B|--3-----------------|--1-----------------|--0-----------------|--0---------------|
G|----------0---0-----|----------0---0-----|----------0---0-----|---------0---0----|
D|------4----4--------|------2----2--------|------0----0--------|------0---0-------|
G|--0-----------------|--0-----------------|--0-----------------|--0---------------|
E|--------------------|--------------------|--------------------|------------------|

D|--------------------|--0------------------|
B|--0-----------------|------0--------------|
G|---------0---0------|----------0---0------|
D|------0----0--------|------------0--------|
G|--0-----------------|--0------------------|
E|--------------------|---------------------|
Composição de Gabrielle Aplin / Nicholas Adtkins / Thomas Wilding
Colaboração e revisão:
  • julia tomeds
96 exibições
    • ½ Tom
    • A
    • Bb
    • B
    • C
    • Db
    • D
    • Eb
    • E
    • F
    • F#
    • G
    • Ab
  • Adicionar à lista

    0 comentários

    Mostrar mais comentários

    Conseguiu tocar?

    0 Tocaram 0 Ainda não

    Grave um vídeo tocando How do You Feel Today? e mande pra gente!

    00:00 / 00:00
    outros vídeos desta música
    repetir qualidade Automático
    Outros vídeos desta música
    00:00 / 00:00
    Automático
    OK