Cifra Club

Aprenda

Heaven or Hell

Gamma Ray

Cifra: Principal (violão e guitarra)
Já pensou em usar uma coleção de roupas do Cifra Club? Responda as perguntas abaixo e nos ajude nessa missão! →
tom: Db
Riff característico em harmonia:
e------------------------------------------------------------------------------------------|
b------------------------------------------------------------------------------------10\ 0-|
g------------9 \ 11-9-----11 / 12-11-9-9-----------------9 \ 11-9-----11 / 12-11--12------|
d--9--11-12-----------12-----------------12-11--9-11-12-----------12----------------------|
a-----------------------------------------------------------------------------------------|
e-----------------------------------------------------------------------------------------|

lick:

e---------------------------------------------------------------------------|
b---------------------------------------------------------------------------|
g---------------------------------------------------------------------------|
d---------------------------------------------------------------------------|
a---5-5---------------------------------------------------------------------|
e-------5-5-3-3-------------------------------------------------------------|


Começando : toque o riff carcterístico 2x aí o canto:        

Where will I go now it's all over     lick
e-----------------------|
b-----------------------|
g-----------------------|
a---2-2-2-2-2-2-2-2-2---|
e-----------------------|


G5                         F5       A5  B5
Where will I be now all is said and done

Here comes the time, prepare for justice         lick

G5                          E5     A5
Seems like my final journey has begun

G5                                   B5            A5 
Riding on the wind, there's only one place left to go
G5                       Gb5   
Take me to my afterlife, high up or down below

B5                           E5                  A5 
Heaven or Hell - where do we go when we are leaving
         B5               E5                A5
Heaven or Hell - whatever comes to set us free
         B5                  E5              A5         G5
Heaven or Hell - I've gone a long way and I see there's no  wishing well

E5                       Gb5  
The choice is made, it's heaven or hell      riff característico


I'm not the one who was expected   lick
e-----------------------|
b-----------------------|
g-----------------------|
a---2-2-2-2-2-2-2-2-2---|
e-----------------------|

G5                         F5     A5   B5
So I'll return and be from heaven sent

Db5
I'm gonna get myself elected   e------------------------------------------------------|
                               b------------------------------------------------------|
                               g------------------------------------------------------|
                               d------------------------------------------------------|
                               a----7-7-----------------------------------------------|
                               e--------7-7-5-5---------------------------------------|

A5                                              
And now I wanna be the president - "Viva el Presidente"
                                   e-------------------------------------------------------|
                                   b-------------------------------------------------------|
                                   g-------------------------------------------------------|
                                   d-----------------------------0-0-2-2-------------------|
                                   a------------0-0--1-1-2-2-3-3---------------------------|
                                   e--2-2--4-4---------------------------------------------|

A5                               Db5            B5   
Master of the damned I'll be the savior of you all
A5                       Ab5               
Take me as a holy god to save you from the fall

Db5                          Gb5        B5
Heaven or Hell - where is my final destination
Db5                       Gb5             B5
Heaven or Hell - whatever comes to set us free
Db5                            Gb5               B5              A5
Heaven or Hell - we've gone a long way and we'll see there is no wishing well
Gb5                      Ab5       Db5
The choice is made, it's heaven or hell  hell , hell ,hell………
Gb5     B5
OOOOOOOOOO

Esse solo pode ser feito por qualquer um dos dois:
e---------------------------4--------------------------4-------4-7-5-4-------------
b-------------------------5---5---5---------------5-------7--7----------7----------
g---------------6----6--8-------8---8--6---6--6-8----------------------------------
d------------------6---------------------9----------9------------------------------
a--6-7-----------------------------------------------------------------------------
e------9-7-------------------------------------------------------------------------

e-------------7-4---4-------------------------------------------------------|
b-5---------5-----7----7-5----5---------------------------------------------|
g------6--8-----------------8-----------------------------------------------|
d----6----------------------------------------------------------------------|
a---------------------------------------------------------------------------|
e---------------------------------------------------------------------------|

Guitarras  gêmeas :
e----------------------------------------------------------8 / 9-----9v---------|
b------------------9----------------------------9-11-12-----------12------------|
g----------9-11-10--------- 9-11------------9-11--------------------------------|
d-----9-11-------------11-11---------9-11---------------------------------------|
a--11---------------12------------11--------------------------------------------|
e-------------------------------------------------------------------------------|

Kai Hansen
e---4--7-4--4-4---------------------------------------------------------------|
b----------7-----7--5---7-5---------------------------------------------------|
g--------------------8--------------------------------------------------------|
d---------------------------9-------------------------------------------------|
a------------------------------9-7-9-7----------------------------------------|
e-----------------------------------------------------------------------------|

guitarras gêmeas novamente:

e--------------------------------------------------------------------------|
b-----------------5 \ 4----------------------------------------------------|
g-------------5-6-------6-8 \ 6----6---------------------------------------|
d-------5-6-8-------------------9----9----9 \ 7 --7\ 6--6 \ 4--------------|
a-7-8-9--------------------------------7-----------------------6 / 7---6---|
e--------------------------------------------------------------------9-----|

e------------16-------17-16-14-16--------------9---9-9---17-16-14-16----14-------------|
b-----14--17----17-14-------------17-14------9---9-------------------17-----16-17-14/9-|
g--13----------------------------------------------------------------------------------|
d--------------------------------------------------------------------------------------|
a--------------------------------------------------------------------------------------|
e--------------------------------------------------------------------------------------|

e-15/ 16-16-19-17-16-14-16------------------------------9---------------------
b---------------------------17 / 19-17----17---------------12-10-12-10-9-------
g--------------------------------------20-----18/14----------------------------
d----------------------------------------------------------------------------
a------------------------------------------------------------------------------
e-------------------------------------------------------------------------------

e---------------7-5-4-------------------------------------------------------|
b--10-9---------------------5-7-5-------------------------------------------|
g-------11-11-------------6-------5-----------------------------------------|
d-----------------------9-----------9---------------------------------------|
a---------------------------------------------------------------------------|
e---------------------------------------------------------------------------|

solo combinado mais melódico da música:

Uma guitarra faz isto 
e---------------------------------------------------------------------------|
b---4------4-------4------4-------------------------------------------------|
g-----3-3-----3-3-----3-3----3-3--etc---------------------------------------|
d---------------------------------------------------------------------------|
a---------------------------------------------------------------------------|
e---------------------------------------------------------------------------|

Enquanto a outra manda 

e--2-1-2-4-2-1-2-1-2-4-2-4-6-4-------4-----------------------------|
b------------------------------7-6-7-------------------------------|
g------------------------------------------------------------------|
d------------------------------------------------------------------|
a------------------------------------------------------------------|
e------------------------------------------------------------------|

Harmonia Curta:

e-----4--2 / 4b-2-1---------------------------------------------------------|
b-6-7-----------------------------------------------------------------------|
g---------------------------------------------------------------------------|
d---------------------------------------------------------------------------|
a---------------------------------------------------------------------------|
e---------------------------------------------------------------------------|

Henjo Hichter:

e--9-11b \9--9 / 11v-----9--------------------------------------------------------|
b---------------------11---11-9-10 /11--10/ 11--10 /11--10/11-10 / 11--9-----9----|
g------------------------------------------------------------------------11----11-|
d---------------------------------------------------------------------------------|
a---------------------------------------------------------------------------------|
e---------------------------------------------------------------------------------|

e---------------------------------------------------------------------------|
b---------------------------------------------------------------------------|
g---------------------------------------------------------------------------|
d--16------------------------------------------------------------------------|
a-----16---------------------------------------------------------------------|
e--------16-13/14--13/-14--14-13-16-13-14v-----------------------------------|

Guitarras gêmeas de volta:
e-------------14-----------------------------------------------------------5-6--|
b------13-15------17-15-14-------------------------------------------5-7-8------|
g--15-----------------------16-15-13-15-13---------------------5-7-8------------|
d------------------------------------------16-15-------------8------------------|
a-------------------------------------------------16-13-------------------------|
e-------------------------------------------------------------------------------|

e--------------13--17-18-21----------------------------------|
b-----14-16-17-----------------------------------------------|
g--15-----------------------20b------------------------------|
d------------------------------------------------------------|
a------------------------------------------------------------|
e------------------------------------------------------------|

ou, se sua guitarra tiver 24 trastes ou mais:

e--------------13--17-18-21-24b----------------------------|
b-----14-16-17---------------------------------------------|
g--15------------------------------------------------------|
d----------------------------------------------------------|
a----------------------------------------------------------|
e----------------------------------------------------------|


B5                                Eb5           Db5
Master of the damned, I'll be the savior of you all
B5                                 A5
I'm your revelation I'm a walking miracle
B5                           F5            Bb5
Heaven or Hell - what is our final destination
B5                           F5       Bb5
Heaven or Hell - where do we go from here
B5                            F5              Bb5            Ab5
Heaven or Hell - we've gone a long way and we see there is no wishing well
E5                       A5
The choice is made, it's heaven or hell

Toque o riff característico cantando:
Heaven or hell
It's heaven or hell
There's no wishing well
It's heaven or hell

Encerramento
e---------------------------------------------------------------------------|
b---------------------------------------------------------------------------|
g---------------------------------------------------------------------------|
d---------------------------------------------------------------------------|
a-------------5-5-----------------------------------------------------------|
e---7-7-7-7-7-----5-5--7-7--------------------------------------------------|
Composição de Kai Hansen
Colaboração e revisão:
  • Gustavo Gomes
3.263 exibições
    • ½ Tom
    • A
    • Bb
    • B
    • C
    • Db
    • D
    • Eb
    • E
    • F
    • F#
    • G
    • Ab
  • Adicionar à lista

    0 comentários

    Ver todos os comentários

    Conseguiu tocar?

    0 Tocaram 0 Ainda não

    Grave um vídeo tocando Heaven or Hell e nos envie!

    00:00 / 00:00
    Outros vídeos desta música
    Repetir Qualidade Automático
    Outros vídeos desta música
    00:00 / 00:00
    Automático

    Cifra Club Pro

    Aproveite o Cifra Club com benefícios exclusivos e sem anúncios
    Cifra Club Pro
    Aproveite o Cifra Club com benefícios exclusivos e sem anúncios
    OK