Cifra Club

Bleed Like Me

Garbage

Cifra: Principal (violão e guitarra)
tom: Ab
VERSE
E|--------------------------------||
B|--------------------------------||
G|--------------------------------||
D|--------------------------------||
A|-3-----3-----3b-----------------||
E|---4-4----4---------------------||

VERSE PT. 2
E|--------------------------------||
B|--------------------------------||
G|--------------------------------||
D|--------------------------------||
A|-4-----4----4b------------------||
E|---4-4----4---------------------||

CHORUS
E|--------------------------------||
B|--------------------------------||
G|--------------------------------||
D|--------------------------------||
A|-2-----2---2b----4-----4----4b--||
E|---4-4---4-----4---4-4----4-----||
00:00 / 00:00
Outros vídeos desta música
Repetir
Outros vídeos desta música
Composição de Garbage
Colaboração e revisão:
  • Marcus Russo
2.942 exibições
    • ½ Tom
    • A
    • Bb
    • B
    • C
    • Db
    • D
    • Eb
    • E
    • F
    • F#
    • G
    • Ab
  • Adicionar à lista

    0 comentários

    Ver todos os comentários

    Entre para oCifra Club PRO

    Tenha acesso a benefícios exclusivos no App e no Site

    • Chega de anúncios

    • Prioridade de compra em lançamentos

    • Mais recursos no app do Afinador

    • Atendimento Prioritário

    • Descontos nos produtos Cifra Club

    • Ajude a produzir mais conteúdo

    00:00 / 00:00

    Cifra Club Pro

    Aproveite o Cifra Club com benefícios exclusivos e sem anúncios
    Cifra Club Pro
    Aproveite o Cifra Club com benefícios exclusivos e sem anúncios
    OK