Cifra Club

Cant Cry These Tears

Garbage

Cifra: Principal (violão e guitarra)
tom: D
Tuning: Normal

This is an interesting song. It has some werid chord fingerins. I will note these 
chord fingerings like this DI, BMI and so one. For beginners I will add in open chord fingerings.

The 5th chords on this song are on the fourth string and kind of high.

Chords Used For This Song

     A    Am    A7     C     C    C7    C7     F     F     G   Bbmaj7
E|---0-----0-----0-----0-----3-----3-----0-----1-----1-----3-----X---|
B|---2-----1-----2-----1-----5-----5-----1-----1-----1-----3-----6---|
G|---2-----2-----0-----0-----5-----3-----3-----2-----2-----0-----7---|
D|---2-----2-----2-----2-----5-----5-----2-----3-----3-----0-----7---|
A|---0-----0-----0-----3-----3-----3-----3-----X-----3-----2-----X---|
E|---X-----X-----X-----X-----X-----X-----X-----X-----1-----3-----6---|

     D     D5    G5     F5    DI    BmI   GI    AI    Gm7   Cm6  Ebmaj7
E|---2-----X------X-----------10-----7-----7-----9-----3-----X-----X----|
B|---3-----X------X-----------10-----7-----8-----10----3-----8-----11---|
G|---2-----14-----7-----5-----11-----7-----7-----9-----3-----8-----12---|
D|---0-----12-----5-----3-----X------X-----X-----X-----3-----7-----12---|
A|---X-----X------X-----------X------X-----X-----X-----5-----X-----X----|
E|---X-----X------X-----------X------X-----X-----X-----3-----8-----11---|

Intro / Chorus:

[C]I just don't [C7]care anymore

[Am]I've reached the [F]end of the road[G]

[C]I just don't [C7]care anymore

[Am]Won't cry these [F]tears anymore[G]


Verse 1:

[D5]Can't find it in the [G5]bible

Can't [D5]find it on tv[G5]

[D5]Can't find it in [G5]diamonds

There's [F5]something inside me that just won't allow me to

Can't [D5]find it in [G5]music

Can't [D5]find it in my soul[G5]

Can't [D5]find it in [G5]chocolate

[F5]Oh babe i can't hide it

I can't even find it in you[C]


Chorus:

[C]I just don't [C7]care anymore

[Am]I've reached the [F]end of the road[G]

[C]I just don't [C7]care anymore

[Am]Won't cry these [F]tears anymore[G]

Verse 2:

There's [D5]no way she can [G5]kiss you

The [D5]way that i do[G5]

I [D5]heard that you [G5]miss me

Oh [F5]you should be careful of who you keep talking to

[D5]Long nights without[G5] you have [D5]taught me to be [G5]strong

I've [D5]cut all my [G5]losses

Think [F5]no more about it cause i couldn't find it in you

[Chorus]

Change Up:

This part gets kind of crazy it has a few riffs. I will list as Riff A B C and so on.
You can strum the chords or play the riffs. During the Change up there are two very distictive
guitar parts They are noted below. Listen to song for changes.

E|---------------------|-------------------|-10-10-10-10-10-10-|
B|---10-10-10-10-10-10-|-11-11-11-11-11-11-|--8-8-8-8-8-8-8-8--|
G|---7--7--7--7--7--7--|-10-10-10-10-10-10-|-------------------|
D|---------------------|-------------------|-------------------|
A|---------------------|-------------------|-------------------|
E|---------------------|-------------------|-------------------|

E|-8--8--8--8--8----|-------------|-------------|-------------|
B|-10-10-10-10-8-10-|-------------|-------------|-3-3-3-3-3-3-|
G|------------------|-2-2-2-2-2-2-|-3-3-3-3-3-3-|-3-3-3-3-3-3-|
D|------------------|-3-3-3-3-3-3-|-3-3-3-3-3-3-|-------------|
A|------------------|-------------|-------------|-------------|
E|------------------|-------------|-------------|-------------|

E|-------------|-10-10-10-10-10-10-|-------------------|
B|-1-1-1-1-1-1-|-10-10-10-10-10-10-|-11-11-11-11-11-11-|
G|-2-2-2-2-2-2-|-------------------|-10-10-10-10-10-10-|
D|-------------|-------------------|-------------------|
A|-------------|-------------------|-------------------|
E|-------------|-------------------|-------------------|

E|-------------------|-------------------|-------------|
B|-11-11-11-11-11-11-|-14-14-14-14-14-14-|-------------|
G|-12-12-12-12-12-12-|-14-14-14-14-14-14-|-3-3-3-3-3-3-|
D|-------------------|-------------------|-5-5-5-5-5-5-|
A|-------------------|-------------------|-------------|
E|-------------------|-------------------|-------------|

E|-------------|-5-5-5-5-5-5-|
B|-2-2-2-2-2-2-|-5-5-5-5-5-5-|
G|-0-0-0-0-0-0-|-2-2-2-2-2-2-|
D|-------------|-------------|
A|-------------|-------------|
E|-------------|-------------|

[Bbmaj7]There was a time

[Gm7] I thought of dyin

[Ebmaj7] If you should ever leave [Cm6] me high and dry

[Bbmaj7] Now you don't [Gm7] want me any more

[Ebmaj7] It's time to [A7]settle the [A]score

Interlude:

/ = Slide UP
\ = Slide Down
> = Hammer On


E|---10/12\10---7-----------10/12\10---7-----------|----------------------|
B|---10/12\10---7-----------10/12\10---7-----------|----------7-----------|
G|------------------9---7------------------9---7---|---7>-9---7-----------|
D|------------------9---7------------------9---7---|---7>-9-------9---7---|
A|-------------------------------------------------|--------------9---7---|
E|-------------------------------------------------|----------------------|

E|---10/12\10---7-----------10/12\10---7-----------|
B|---10/12\10---7-----------10/12\10---7-----------|
G|------------------9---7------------------9---7---|
D|------------------9---7------------------9---7---|
A|-------------------------------------------------|
E|-------------------------------------------------|

E|---10/12\10---7-----------10/12\10---7-----------|-------------------------------------|
B|---10/12\10---7-----------10/12\10---7-----------|---------7-------7-------7-------7---|
G|------------------9---7------------------9---7---|---7>-9--7---9---7---9---7---9---7---|
D|------------------9---7------------------9---7---|---7>-9--------------------------7---|
A|-------------------------------------------------|-------------------------------------|
E|-------------------------------------------------|-------------------------------------|

E|---10/12\10---7-----------10/12\10---7-----------|---10/12\10---7-----------10/12\10---7-----------|
B|---10/12\10---7-----------10/12\10---7-----------|---10/12\10---7-----------10/12\10---7-----------|
G|------------------9---7------------------9---7---|------------------9---7------------------9---7---|
D|------------------9---7------------------9---7---|------------------9---7------------------9---7---|
A|-------------------------------------------------|-------------------------------------------------|
E|-------------------------------------------------|-------------------------------------------------|


Outro Chorus:


[D]I just don't care anymore

[Bm]I've reached the [G]end of my tether

I've [A]torn all your letters up

[D]I just don't care anymore

[Bm]Won't cry these [G]tears anymore[A]

[D]I just don't care anymore

[Bm]I've reached the [G]end of my rope

And it's [A]time that i told you so [D]

I just don't care anymore

[Bm]Won't cry these [G tears [A]anymore
00:00 / 00:00
Outros vídeos desta música
Repetir
Outros vídeos desta música
Composição de Butch Vig / Duke Erikson / Shirley Manson / Steve Marker
465 exibições
    • ½ Tom
    • A
    • Bb
    • B
    • C
    • Db
    • D
    • Eb
    • E
    • F
    • F#
    • G
    • Ab
  • Adicionar à lista

    0 comentários

    Ver todos os comentários

    Entre para oCifra Club PRO

    Tenha acesso a benefícios exclusivos no App e no Site

    • Chega de anúncios

    • Prioridade de compra em lançamentos

    • Mais recursos no app do Afinador

    • Atendimento Prioritário

    • Descontos nos produtos Cifra Club

    • Ajude a produzir mais conteúdo

    00:00 / 00:00

    Cifra Club Pro

    Aproveite o Cifra Club com benefícios exclusivos e sem anúncios
    Cifra Club Pro
    Aproveite o Cifra Club com benefícios exclusivos e sem anúncios
    OK