Cifra Club

Cherry Lips

Garbage

Cifra: Principal (violão e guitarra)
tom: C
bem, o comeco real dessa musica eh no teclado, mais essa versao pra 
guitarra e violão ficou boa, entao,  espero q gostem

INTO/VERSE

e---------------------------------------------------
B---------------------------------------------------
G---------------------------------------------------
D------4-3-2-2------------2-1-0-0------------2-4-2--
A--4-4----------4-0---2-2----------2---0-0-4--------
E------------------------------------4--------------

e-----------------------]
B-----------------------]
G-----------------------]
D---------------4-4-1---]
A--4-0---2-2------------]
E-----------------------]

CHORUS

e---------------------------------------------------
B---------------------------------------------------
G-6666------------4444------------------------------
D-6666----4444----4444----2222----77777777----4444--
A-4444----4444----2222----2222----77777777----4444--
E---------2222------------0000----55555555----2222--

e----------]
B----------]
G-4444-----]
D-4444-----]
A-2222-----]
E----------]

OUTRA PARTE
e---------------------------------------------------
B---------------------------------------------------
G-66666666----------------4444----------------------
D-66666666----44444444----4444----7777----2222------
A-44444444----44444444----2222----7777----2222------
E-------------22222222------------5555----0000------

e---------]
B---------]
G---------]
D-6666----]
A-6666----]
E-4444----]

"YOU HOLD A CANDLE........"

ORDEM:
intro 1x
verse 3x
chorus 2x
verse 4x
chorus 2x
outro 2x
verse 2x
chorus 6x
verse
00:00 / 00:00
Outros vídeos desta música
Repetir
Outros vídeos desta música
Composição de Butch Vig / Duke Erikson / Shirley Manson / Steve Marker
Colaboração e revisão:
  • Carolini Bueno
9.196 exibições
    • ½ Tom
    • A
    • Bb
    • B
    • C
    • Db
    • D
    • Eb
    • E
    • F
    • F#
    • G
    • Ab
  • Adicionar à lista

    0 comentários

    Ver todos os comentários

    Conseguiu tocar?

    0 Tocaram 0 Ainda não

    Grave um vídeo tocando Cherry Lips e nos envie!

    Entre para oCifra Club PRO

    Tenha acesso a benefícios exclusivos no App e no Site

    • Chega de anúncios

    • Prioridade de compra em lançamentos

    • Mais recursos no app do Afinador

    • Atendimento Prioritário

    • Descontos nos produtos Cifra Club

    • Ajude a produzir mais conteúdo

    00:00 / 00:00

    Cifra Club Pro

    Aproveite o Cifra Club com benefícios exclusivos e sem anúncios
    Cifra Club Pro
    Aproveite o Cifra Club com benefícios exclusivos e sem anúncios
    OK