Cifra Club

Aprenda

Drive You Home

Garbage

Cifra: Principal (violão e guitarra)
tom: C

Dedilhe os acordes da seguinte forma:

  C
e -----------------------------0--------
b -----------1--------0-------(0)-------
g --------0--------0--------0-----------
d -----2--------2--------2--------------
a --3-----------------------------------
E --------------------------------------

  Am
e -----------------------------0--------
b -----------1--------0-------(0)-------
g --------2--------2--------2-----------
d -----2--------2--------2--------------
a --0-----------------------------------
E --------------------------------------

  Dm
e -----------1--------------------------
b --------3-----3-----------------------
g -----2-----------2--------------------
d --0-----------------------------------
a --------------------------------------
E --------------------------------------

  G
e -----------3--------------------------
b --------------3-----------------------
g -----------------0--------------------
d --------0-----------------------------
a -----2--------------------------------
E --3-----------------------------------

Intro: C Am

            
            C
It's funny how
Am
Even now        
Dm                   G                                   C
You still support me after all of the things that I've done
C
You're so good to me
Am
Waiting patiently
Dm                       G                         C
And isn't it sad that you still have to ask if I care


C        Am         Dm   G
I never said I was perfect

    F  F   Fm  Fm   C
But I can take you away


C
Walk on shells tonight  
Am
Can't do right tonight 
          Dm
And you can't say a word
        G                         
Cause I leap down your throat
   C        
So uptight am I

(O resto é o mesmo...)

I never said I was perfect
But I can drive you home

I got down on myself
Working too hard
Driving myself to death 
Trying to beat out the faults in my head
What a mess I've made
Sure we all make mistakes
But they see me so large that they think I'm immune to the pain

I'm praying for a miracle
But I won't hold my breath

I never said I was perfect
But can you drive me


Acordes:

 C   Am  Dm  G   F   Fm
-0---0---1---3---1---1-
-1---1---3---0---1---1-
-0---2---2---0---2---1-
-2---2---0---0---3---3-
-3---0---0---1---3---3-
-0---0---0---2---1---1-
Composição de Butch Vig / Duke Erikson / Shirley Manson / Steve Marker
Colaboração e revisão:
  • Rudy
2.711 exibições
    • ½ Tom
    • A
    • Bb
    • B
    • C
    • Db
    • D
    • Eb
    • E
    • F
    • F#
    • G
    • Ab
  • Adicionar à lista

    0 comentários

    Ver todos os comentários

    Conseguiu tocar?

    0 Tocaram 0 Ainda não

    Grave um vídeo tocando Drive You Home e nos envie!

    00:00 / 00:00
    outros vídeos desta música
    repetir qualidade Automático
    Outros vídeos desta música
    00:00 / 00:00
    Automático

    Cifra Club Pro

    Aproveite o Cifra Club com benefícios exclusivos e sem anúncios
    Cifra Club Pro
    Aproveite o Cifra Club com benefícios exclusivos e sem anúncios
    OK