Cifra Club

Dumb

Garbage

Cifra: Principal (violão e guitarra)
tom: G
Riff 1     end on:
G|----------------------------------|-------------------------|
D|----------------------------------|-------------------------|
A|----------------------------------|-5--5--5--5--2--2--2--2--|
D|--4--4--4--4--4--4--4--4--4--4--4-|-------------------------|

Verse
G|------------------------------------------------------------|
D|------------------------------------------------------------|
A|------------------------------------------------------------|
D|-4--4--4--4--4--4--4--4--4--4--4--4--4--4--4--4--4--4--4--4-|

(continued)
G|----------------------------------------------|
D|----------------------------------------------|
A|--------------------------2--2--2--2--/-------|
D|--4--4--4--4--0--0--0--0----------------------|

Pre-Chorus
G|------------------------------------------------------------|
D|------------------------------------------------------------|
A|--7--7-5--7--7-/-5--5-4--5--5-/-9--9-7--9--9-\-7--7-5--7--7-|
D|------------------------------------------------------------|

(continued)
G|---------------------------------|
D|---------------------------------|
A|--5--5-4--5--5-4--7--------------|
D|---------------------------------|

Chorus
G|----6------6----4------4----6-----6-------------------------|
D|---------------------------------------6------6----7------7-|
A|--4----4-4----2----2-2----4---4-4---------------------------|
D|-------------------------------------6----6-6----7----7-7---|

(continued)
G|----4------4------------------------------------------------|
D|------------------------------------------------------------|
A|--2----2-2--------------------------------------------------|
D|------------------------------------------------------------|

Post-Chorus
G|------------------------------------------------------------|
D|------------------------------------------------------------|
A|--------------------------------------2--2--2--2------------|
D|--4--4--4--4--7--7--7--7--0--0--0--0------------------------|

Riff 2
G|--------------------------------|
D|--------------------------------|
A|--------------------------------|
D|--4--4--4--4--4--4--4--4--4-----|

Bridge
G|------------------------------------------------------------|
D|------------------------------------------------------------|
A|--0--0--0--0--2--2--2--2------------------------------------|
D|--------------------------4--4--4--4--6--6--6--6------------|

(continued)
G|--------------------------------|
D|--------------------------------|
A|--0--0--0--0--2--2--2--2--------|
D|--------------------------4-----|

Outro
G|------------------------------------------------------------|
D|------------------------------------------------------------|
A|----4----3----2----0-----------4----3----2----0-------------|
D|--4----4----4----4----4--2---4----4----4----4----4----------|
00:00 / 00:00
Outros vídeos desta música
Repetir
Outros vídeos desta música
Composição de Garbage
Colaboração e revisão:
  • Marisa Oliveira
374 exibições
    • ½ Tom
    • A
    • Bb
    • B
    • C
    • Db
    • D
    • Eb
    • E
    • F
    • F#
    • G
    • Ab
  • Adicionar à lista

    0 comentários

    Ver todos os comentários

    Conseguiu tocar?

    0 Tocaram 0 Ainda não

    Grave um vídeo tocando Dumb e nos envie!

    Entre para oCifra Club PRO

    Tenha acesso a benefícios exclusivos no App e no Site

    • Chega de anúncios

    • Prioridade de compra em lançamentos

    • Mais recursos no app do Afinador

    • Atendimento Prioritário

    • Descontos nos produtos Cifra Club

    • Ajude a produzir mais conteúdo

    00:00 / 00:00

    Cifra Club Pro

    Aproveite o Cifra Club com benefícios exclusivos e sem anúncios
    Cifra Club Pro
    Aproveite o Cifra Club com benefícios exclusivos e sem anúncios
    OK