Cifra Club

Fix Me Now

Garbage

Cifra: Principal (violão e guitarra)
tom: C
By Kevin Brown
Key:   /  = Slide up

Chords

  Dsus2   G6   Asus2 
 
e   0      3     0
B   3      3     0
G   2      0     2
D   0      0     2
A                0
E

Riff A
   A
e-|------------------------|
B-|------------------------|
G-|--/9--7-----7--9--10--9-|
D-|--/9--7--9--7--9--10--9-|
A-|--/7--5--9--5--7---8--7-|
E-|---------7--------------|

Riff B
   A
e-|-----------------------|
B-|-----------------------|
G-|--/9--7-----7--9--7----|
D-|--/9--7--9--7--9--7--9-|
A-|--/7--5--9--5--7--5--9-|
E-|---------7-----------7-|

Riff C
   B                A
e-|----------------|----------------|
B-|---------10-----|---------10-----|
G-|---11--------11-|---11--------11-|
D-|-9----9---------|-9----9---------|
A-|----------------|----------------|


Intro

 N.C.
 Things don't have to be this way
                          (riff A)
 Catch me on a better day
        (riff B)      (riff A)
 |B     |A     |B     |A     | x2


Verse 1

(riff C)
 B        A
 Bury me above the clouds
(riff C)
 B                A    (riff A)
 All the way from here
(riff C)
 B             A
 Take away the things I need
(riff C)           (riff 
00:00 / 00:00
Outros vídeos desta música
Repetir
Outros vídeos desta música
Composição de Garbage
2.924 exibições
    • ½ Tom
    • A
    • Bb
    • B
    • C
    • Db
    • D
    • Eb
    • E
    • F
    • F#
    • G
    • Ab
  • Adicionar à lista

    0 comentários

    Ver todos os comentários

    Entre para oCifra Club PRO

    Tenha acesso a benefícios exclusivos no App e no Site

    • Chega de anúncios

    • Prioridade de compra em lançamentos

    • Mais recursos no app do Afinador

    • Atendimento Prioritário

    • Descontos nos produtos Cifra Club

    • Ajude a produzir mais conteúdo

    00:00 / 00:00

    Cifra Club Pro

    Aproveite o Cifra Club com benefícios exclusivos e sem anúncios
    Cifra Club Pro
    Aproveite o Cifra Club com benefícios exclusivos e sem anúncios
    OK