Cifra Club

Not My Idea

Garbage

Cifra: Principal (violão e guitarra)
tom: C
INTRO
|------------------------------------------------------|
|------------------------------------------------------|
|-2--x-x-2--x-x-2--x-x-2--x-x-2--x-x-2--x-x-2--x-x-3-3-|
|-2--x-x-2--x-x-2--x-x-2--x-x-2--x-x-2--x-x-2--x-x-3-3-|
|-0--x-x-0--x-x-0--x-x-0--x-x-0--x-x-0--x-x-0--x-x-1-1-|
|------------------------------------------------------|

vocalização e Versos
|-1----0----1----0----|
|-1----1----1----0----|
|-2----0----2----0----|
|-3----2----3----2----|
|-3----3----3----3----|
|-1---------1---------|

I bit my tongue and stood in line
With not much to believe in
I bought into what I was sold
And ended up with nothing

Chorus (igual a Intro)
This is not my idea of a good time
This is not my idea of a good time
This is not my idea of a good time
This is not my idea

You thought that I would never see
What was meant for you was meant for me
I was distracted at the time
Forget about yours now what about mine

Chorus 

BRIDGE
|------------|
|-12----7----|
|-12----7----|
|-12----7----|
|-10----5----|
|------------|

(mudo)
You thought I was a little girl
You thought I was a little mouse
You thought you'd take me by surprise
Now I'm here burning down your house

Chorus
|------------------------------------------------------|
|------------------------------------------------------|
|-4--x-x-4--x-x-4--x-x-4--x-x-4--x-x-4--x-x-4--x-x-5-5-|
|-4--x-x-4--x-x-4--x-x-4--x-x-4--x-x-4--x-x-4--x-x-5-5-|
|-2--x-x-2--x-x-2--x-x-2--x-x-2--x-x-2--x-x-2--x-x-3-3-|
|------------------------------------------------------|
00:00 / 00:00
Outros vídeos desta música
Repetir
Outros vídeos desta música
Composição de Garbage
Colaboração e revisão:
  • Marcus Russo
1.205 exibições
    • ½ Tom
    • A
    • Bb
    • B
    • C
    • Db
    • D
    • Eb
    • E
    • F
    • F#
    • G
    • Ab
  • Adicionar à lista

    0 comentários

    Ver todos os comentários

    Entre para oCifra Club PRO

    Tenha acesso a benefícios exclusivos no App e no Site

    • Chega de anúncios

    • Prioridade de compra em lançamentos

    • Mais recursos no app do Afinador

    • Atendimento Prioritário

    • Descontos nos produtos Cifra Club

    • Ajude a produzir mais conteúdo

    00:00 / 00:00

    Cifra Club Pro

    Aproveite o Cifra Club com benefícios exclusivos e sem anúncios
    Cifra Club Pro
    Aproveite o Cifra Club com benefícios exclusivos e sem anúncios
    OK