Cifra Club

Aprenda

Only Happy When It Rains

Garbage

Cifra: Principal (violão e guitarra)
tom: B
Ouça a música pra ver como botar a notas em tempo certo e use distorção na guitarra
Cuidado na hora tocar os solos sobrepostos ( um tocado em cima do outro ) 

Riff 1 ( guitarra 1 )
  e-----------------------------------------|
  b-----------------------------------------|
  g-----------------------------------------|
  d-----------------------------------------|
  a-----------2-----------------------------|
  e-4-4-4-2-4---2---------------------------|


lick ( guitarra 2)

e---4--2-------------------|
b---------2----------------|
g--------------------------|
d--------------------------|
a--------------------------|
e--------------------------|

sequência 1  ( guitarra 1 )
e-----------------------------------------------|
b-----------------------------------------------|
g-----------------------------------------------|
d-----------------------------------------------|
a----------------------------------------2--4-4-|
e-2---2---2--2-2--------0---0---0--0-2-4--------|

sequência 2 ( guitarra 1 )
e--------------------------------------|
b--------------------------------------|
g--------------------------------------|
d--------------------------------------|
a-4--2----------------------------2----|
e---------4-----2---------0-0-0-0---2--|

tab 1 ( guitarra 1)
e------------------|
b------------------|
g------------------|             
d------------------|
a------------------|
e-2---2--2---2-2---|

Solo 2  ( guitarra 2 )
e-12b-12b--9--------|
b------------12-----|
g-------------------|
d-------------------|
a-------------------|
e-------------------|

solo 3 ( guitarra 2 )
e-----------------|
b-----------------|
g-13-13/16-13-----|
d------------13---|
a-----------------|
e-----------------|

solo 4  ( guitarra 2 )
e-----------------------|
b-----------------------|
g----13-13 /16----------|
d--------------16-------|
a------------------16---|
e-----------------------|

riff 2 ( guitarra 1 )
e---------------------------------------------|
b---------------------------------------------|
g---------------------------------------------|
d---------------------------------------------|
a-----------------------------2-4-4-----------|
e--4--4-4-0-0-0--------2-4--------------------|

riff 3 (guitarra 1)
e-----------------------|
b-----------------------|
g-----------------------|
d-1---------------------|
a-----4-2---------------|
e----------4-2-4--------|

solo 5 ( guitarra 2 )
e---2/ 4---2/4--------------|
b----------------2/ 4-------|
g---------------------------|
d---------------------------|
a---------------------------|
e---------------------------|

Escrevi tudo na ordem que aparece quando a música evolui.
Agora a letra da música ,o lugar em que as tablaturas entram nela e onde usa acorde: 

                           riff 1
I´m only happy when it rains    
sequência 1
I´m only happy when it´s complicated    
sequência 2 
And though I know you can´t appreciate it
tab 1                      riff  1
I´m only happy when it rains   
sequência 1
You know I love it when the news is bad
sequência 2
Why it feels so good to feel so sad
tab 1                   B5
I´m only happy when it rains       

C#5              G#5 
Pour your misery down
A5        B5             C#5
Pour your misery down on me
                 G#5    
Pour your misery down
A5        B5             F#5
Pour your misery down on me

                           riff 1 junto com o lick
I´m only happy when it rains
sequência 1                           lick
I feel good when things are going wrong
sequência 2                       lick
I only listen to the sad ,sad songs
tab 1                     B5
I´m only happy when it rains

Solo 1: dar slide é melhor , porque fica igual.Toque a corda não dê  o bend logo ,espere um segundo. Ele é combinado com o solo 2.

solo 1
e--------------------------------------------------------------------------
b--------------------------------------------------------------------------
g-11/ 13 -14\ 13-----------11/ 13 -14\ 13-----------11/ 13 -14\ 13---------
d-----------------13-----------------------13-14b------------------13-14---
a----------------------16b-------------------------------------------------
e--------------------------------------------------------------------------

e---------------------------|
b---------------------21b---|
g--11/ 13 -14\ 13--21-------|
d---------------------------|
a---------------------------|
e---------------------------|

e--------------------------------------------------------------------------
b--------------------------------------------------------------------------
g-11/ 13 -14\ 13-----------11/ 13 -14\ 13-----------11/ 13 -14\ 13---------
d-----------------13-----------------------13-14b------------------13-14---
a----------------------16b-------------------------------------------------
e--------------------------------------------------------------------------
   solo 2                  solo 2                   solo 2     

e---------------------------|
b---------------------21b---|
g--11/ 13 -14\ 13--21-------|
d---------------------------|
a---------------------------|
e---------------------------|
   solo 2

G#                     F#
I only smile in the dark
E
My only comfort is the night gone black
                                 F#
I didnt accidentally tell you that
                          G#   lick   
Im only happy when it rains    
F#                                          E  lick       
You´ll get the message by the time Im through   
                              F#
When I complain about me and you    
                        B5
Im only happy when it rains

C#5              G#5 
Pour your misery down    (pour your misery down)
A5        B5             C#5
Pour your misery down on me  (pour your misery down)
                 G#5         
Pour your misery down  (pour your misery down)
A5        B5             C#5
Pour your misery down on me (pour your misery down)
                  G#5         
Pour your misery down  (pour your misery down)
A5        B5             C#5
Pour your misery down on me (pour your misery down)
                  G#5         
Pour your misery down  
A5
You can keep me company
B5                     F#5
As long as you don´t care

                          riff 1 
Im only happy when it rains
solo3 seguido de solo 4 junto com sequência 1
You wanna hear about my new obsession
solo 3 junto com sequência 2
I´m riding high upon a deep depression
tab 1 junto com solo 4
Im only happy when it rains

Repita o que tá abaixo 9 vezes :

riff 2 junto com : solo 3 seguido de solo 4
Pour some misery down on me
riff 3
Im only happy when it rains...

Agora até o final da música assim, com o solo 5 devagar,de fundo, repetidamente :

riff 2 
Pour some misery down on me
riff 3
Im only happy when it rains...
Composição de Garbage
Colaboração e revisão:
  • Gustavo Gomes
  • Marcos Brás
19.254 exibições
    • ½ Tom
    • A
    • Bb
    • B
    • C
    • Db
    • D
    • Eb
    • E
    • F
    • F#
    • G
    • Ab
  • Adicionar à lista

    0 comentários

    Ver todos os comentários

    Conseguiu tocar?

    2 Tocaram 0 Ainda não

    Grave um vídeo tocando Only Happy When It Rains e nos envie!

    00:00 / 00:00
    outros vídeos desta música
    repetir qualidade Automático
    Outros vídeos desta música
    00:00 / 00:00
    Automático

    Cifra Club Pro

    Aproveite o Cifra Club com benefícios exclusivos e sem anúncios
    Cifra Club Pro
    Aproveite o Cifra Club com benefícios exclusivos e sem anúncios
    OK