Cifra Club

Guardaespaldas

Genitallica

Cifra: Principal (violão e guitarra)
tom: Cm
    B
E|-------|
B|-------|
G|---4---|
D|---4---|
A|---2---|
E|-------|

De los demas toquenlos con cejilla y se escuchara bien

"La genitalia es amor
para toda la gente
queremos paz en nuestro país
aireh yah rastafarai"

Cm                  Ab
Quiero ser tu guardaespaldas
   G                Cm
quiero ser tu protector
                     Ab
tengo mi chaleco antibalas
        G          Cm
por si pasa lo peor
                        Ab
asi que corten cartucho y apunten
             G          Cm
directo a mi corazón

que si no muero de balas
       Ab
muero de locura
     G            Ab
o muero en alcohol
                            G    Ab
sabes que dicen cosas malas de mi
Ab
y todo es cierto
  B          Cm
tu sabes que me perdí.

CORO
          Ab            G
Soy el smog de la ciudad
          B                Cm
tu eres el aire puro del mar
          Ab            G
eres medicina para sanar
          B                Cm
eres mi pastilla de enamorar.


G# G B Cm x2


   Ab          G
Y lo acepto soy culpable
Cm
siempre he sido un loco pero un loco amable
    Ab          G
y es mas fácil junto a ti
Cm
enfrentar a la vida empezar a cambiar
   Ab          G
el futuro del planeta
Cm
todos juntos unidos buscando respuestas
     Ab                G                     Cm
que muevan montañas que lluevan montones de ideas
                                  Ab
que abran los ojos y cambien al mundo
                 G
por mas de un segundo
                Cm
palabras prohibidas
                  Ab G Cm
que cambian el rumbo
que cambian el rumbo.


CORO


G  O

E|-----------------------------------|
B|--4--3-----------------------------|
G|--------5--3--5~~---5--3-----------|
D|--------------------------5--3--5~~|
A|-----------------------------------|
E|-----------------------------------|

E|--------------10-13-11-10-11-10------------|
B|-----------11-------------------13-11/13~~-|
G|--12----12---------------------------------|
D|-----12------------------------------------|
A|-------------------------------------------|
E|-------------------------------------------|

E|----------------------------------------|
B|--4--3----------------------------------|
G|--------5--3--5--3--5~---5--3-----------|
D|-------------------------------5--3--5~~|
A|----------------------------------------|
E|----------------------------------------|

E|--15-13----------------------------|
B|--------16-15-16-15-13----13-------|
G|-----------------------15----12~~--|
D|-----------------------------------|
A|-----------------------------------|
E|-----------------------------------|

G|-----8~/12~/10~/7-----|
Sabes que dicen cosa malas de mi

y todo es cierto
  B          Cm
tu sabes que me perdí.
Compositor não encontrado.
2 exibições
    • ½ Tom
    • Am
    • Bbm
    • Bm
    • Cm
    • C#m
    • Dm
    • Ebm
    • Em
    • Fm
    • F#m
    • Gm
    • G#m
  • Adicionar à lista

    0 comentários

    Ver todos os comentários

    Conseguiu tocar?

    0 Tocaram 0 Ainda não

    Grave um vídeo tocando Guardaespaldas e nos envie!

    00:00 / 00:00
    Outros vídeos desta música
    Repetir Qualidade Automático
    Outros vídeos desta música
    00:00 / 00:00
    Automático

    Cifra Club Pro

    Aproveite o Cifra Club com benefícios exclusivos e sem anúncios
    Cifra Club Pro
    Aproveite o Cifra Club com benefícios exclusivos e sem anúncios
    OK