Cifra Club

Aprenda

Something

George Harrison

Cifra: Principal (violão e guitarra)
tom: D
Intro: F  Eb  G  C
E|--------------------------|                                                                 
B|-10--13r12--10--11--12----|                                                                                  G|--------------------------|
D|--------------------------|
A|--------------------------|
E|--------------------------|


C                        Cmaj7
Something in the way she moves,
C7                         F
Attracts me like no other lover.
D7                         G
Something in the way she woos me.
   Am                        Am(maj7)
I don't wanna leave her now,
     Am7                 D9
You know I believe, and how.

(intro)

C                            Cmaj7
Somewhere in her smile she knows,
C7                            F      F/E
  That I don't need no other lover.
D7                           G
Something in her style that shows me.
   Am                        Am(maj7)
I don't wanna leave her now,
     Am7                 D9
You know I believe and how.

(intro)

A                C#m/Ab          F#m7   A/E
  You're asking me will my love grow,
        D      G        A
I don't know, I don't know.
A             C#m/Ab            F#m7  A/E
  You stick around now, it may show,
        D      G        A
I don't know, I don't know.
Solo:

E|-------------------------------------------------------------8----|
B|-------8----------8b(10)-b(10)8-------------8--10--8---8/10-------|
G|--7/9-----9--7/9----------------9------7/9------------------------|
D|------------------------------------------------------------------|
A|------------------------------------------------------------------|
E|------------------------------------------------------------------|

E|--8--10--b(12)10--8-------------8--8\-----------------------------|
B|---------------------10-----/10--------------8--8-----------------|
G|-----------------------------------------/9--------\2---4\2-------|
D|------------------------------------------------------------------|
A|------------------------------------------------------------------|
E|------------------------------------------------------------------|

E|-------------------------------------------------9-8-7--/12-11-10-|
B|-------7--7--b(11)10--10b(11)10 10b(11)10--8---8------------------|
G|--2/7-------------------------------------------------------------|
D|------------------------------------------------------------------|
A|------------------------------------------------------------------|
E|------------------------------------------------------------------|

E|------------------------------------------------------------------|
B|------------------------------------------------------------------|
G|-----b(9)7--b(9)7--5----b(9)7-b(9)7-b(9)7--5-- b(9)7--b(9)7--5----|
D|------------------------------------------------------------------|
A|------------------------------------------------------------------|
E|------------------------------------------------------------------|

E|----------10/12--10--8--10--8-------------------------------------|
B|-------8-----------------------10--b(13)12--10--11--12--13--------|
G|--7/9-------------------------------------------------------------|
D|------------------------------------------------------------------|
A|------------------------------------------------------------------|
E|------------------------------------------------------------------|


C                          Cmaj7
Something in the way she knows,
C7                      F
And all I have to do is think of her.
D7                            G
Something in the things she shows me.
  Am                          Am(maj7)
I don't wanna leave her now.
    Am7                 D9
You know I believe and how.
E|---------------------------------16-15-14-------------------------------|
B|-10--b(13)12--10--11--12--14--14-----------10--b(13)12--10--11--12--13--|
G|------------------------------------------------------------------------|
D|------------------------------------------------------------------------|
A|------------------------------------------------------------------------|
E|------------------------------------------------------------------------|
Composição de George Harrison
Colaboração e revisão:
  • Mariana Oliveira
55.077 exibições
    • ½ Tom
    • A
    • Bb
    • B
    • C
    • Db
    • D
    • Eb
    • E
    • F
    • F#
    • G
    • Ab
  • Adicionar à lista

    0 comentários

    Ver todos os comentários
    00:00 / 00:00
    outros vídeos desta música
    repetir qualidade Automático
    Outros vídeos desta música
    00:00 / 00:00
    Automático

    Cifra Club Pro

    Aproveite o Cifra Club com benefícios exclusivos e sem anúncios
    Cifra Club Pro
    Aproveite o Cifra Club com benefícios exclusivos e sem anúncios
    OK