Enviar cifraEntrar

While My Guitar Gently Weeps

George Harrison

Cifra: Principal
exibições 138.937
Tom: C
Intro:

E|-------------------------------10------10-12-------10-------10-------10------------------------
B|-10-(21 vezes)---12-12--13-13-------13-------13-------12-------10---------------9--------------
G|------------------------------------------------14-------12-------11-----9---------------------
D|---------------------------------------------------------------------------9/11----------------
A|-----------------------------------------------------------------------------------------------
E|-----------------------------------------------------------------------------------------------

weeps...


E|----------------------------|-----------------------|--------------8-5-|------8-8---5-5-5-------
B|----------------------------|-----------10-8--------|-------10-10------|-8-10-----8-------5-----
G|-17-17-1716-14-14h16p14----|-7/9--7/9--------9-7-6-|-7/9-9------------|--------------------7-5-
D|-------------------------14-|-----------------------|------------------|------------------------
A|----------------------------|-----------------------|------------------|------------------------
E|----------------------------|-----------------------|------------------|------------------------


solo?


E|----------------------12--------------------------------------------12-10----12--15---------17--
B|-131210----10-12-13----13-10------10-13-13-----10-13-13-----10-13-------13---------15-13------
G|----------12---------------------12-----------12-----------12-----------------------------------
D|------------------------------------------------------------------------------------------------
A|------------------------------------------------------------------------------------------------
E|------------------------------------------------------------------------------------------------


E|-17-17--1715-17-----------17---------------15--------------------------------------------------
B|------------------17-15-17----17---15----17----17-----13-12-10-12-13-13------8------------------
G|--------------------------------------17----------17---------------------7-9---9-7-7----7-------
D|-------------------------------------------------------------------------------------10---10----
A|------------------------------------------------------------------------------------------------
E|------------------------------------------------------------------------------------------------


Solo final:


E|----------------------------------17-15----17-15-17---|----------------------------------10-8---
B|----------------------15-17-17-17-------17------------|----------------10-10---10---10----------
G|-------------14-16-17---------------------------------|-7/9-(13 vezes)-------9----9----9--------
D|----14-15-17------------------------------------------|-----------------------------------------
A|-17---------------------------------------------------|-----------------------------------------
E|------------------------------------------------------|-----------------------------------------


E|--------------------------10--10-8-10-8-10-8-------------------------------------------17----17-
B|-10-------------------------------------------10-13-13-10----10-13-13--10/13--15/17-17----17----
G|----9-7---------------------------------------------------12------------------------------------
D|--------10--------10--10------------------------------------------------------------------------
A|------------10-12-------------------------------------------------------------------------------
E|------------------------------------------------------------------------------------------------


E|--------------17...--
B|-17-15---------------
G|-------17-14---------
D|---------------------
A|---------------------
E|---------------------


Intro: Am  Am/G  F#m7/5-  Dm/F  Am  G  D  E

   Am        Am/G         F#m7/5-              F7+
I look at you all see the love there that's sleeping
 Am          G          D       E
While my guitar gently weeps
   Am          Am/G       F#m7/5-         F7+
I look at the floor and I see it needs sweeping
Am           G          C    E
Still my guitar gently weeps

A            C#m F#m     C#m
I don't know why nobody told you
Bm                  E   D/F#   E
how to unfold your love
A            C#m F#m           C#m
I don't know how  someone controlled you
Bm                    E  D/F#  E
They bought and sold you

   Am        Am/G         F#m7/5-              F7+
I look at the world and I notice it's turning
Am          G          D       E
While my guitar gently weeps
   Am          Am/G       F#m7/5-         F7+
With every mistake we must surely be learning
Am           G          C    E
Still my guitar gently weeps

A            C#m F#m     C#m
I don't know how you were diverted
Bm                  E  D/F#  E
You were perverted too
A            C#m F#m           C#m
I don't know how you were inverted
Bm                    E  D/F#  E
No one alerted you.

(dois violões)


E|-----------------------------0--------------|
B|------0-1-----0-1---0-1-3-1----1---0--------|
G|---2------2-------2--------------2----2-0-2-|
D|-2------------------------------------------|


E|-----------------------------0--------------|
B|------0-1-----0-1---0-1-3-1----1---0-----1--|
G|---2------2-------2--------------2---2-0----|
D|-2------------------------------------------|


I don't know...


E|-------4-2-0---------0-----------0----------|
B|-2-0-2---------2-0-2---2-0-----0---2--0-----|
G|-----------------------------2--------------|
D|--------------------------------------------|
  • 1
  • 2
  • 3
  • 4
  • 5
  • 6
  • 7
  • 8
  • 9
  • 10
  • 11
  • 12
    Acordes para:
      Composição: George HarrisonColaboração e revisão:
      • Pedro
      • beato
      • Jaba25

      0 comentários

        mostrar mais comentários

        Conseguiu tocar?

        10tocaram0ainda não

        Grave um vídeo tocando While My Guitar Gently Weeps e mande pra gente!

        00:00 / 00:00
        outros vídeos desta música
        repetirqualidadeautomática
        • automática
        Outro vídeos desta música
          00:00 / 00:00
          automática
          • automática
          Acordes para:violão e guitarra
          dificuldadeexibiçõescontribuições
          1 versão de Guitar Proformatodownloadscontribuição
          1 versão de Partiturasformatodownloadscontribuição
          fecharplay/pause subir/descer velocidade
            acordes
            fechar
            OK
            Feedback