Cifra Club

Violeira de Apache

Ghetto É Ghetto

Cifra: Principal
exibições 21.504
Tom: A
Intro:

E|-------5-------------5-------------4------------4-----
B|-----5---5---------5---5---------5---5--------5---5---
G|---7-------7-----7-------7-----6-------6----6-------6-
D|-7-------------7-------------6------------6-----------
A|------------------------------------------------------
E|------------------------------------------------------

E|-------5-------------7------
B|-----5---5---------7---7----
G|---7-------7-----9-------9~-
D|-7-------------9------------
A|----------------------------
E|----------------------------

Depois da violeira de apache...

E|-----------    E|------------
B|-----------    B|------------
G|-9--6------ 2x G|-9--7-------  2x
D|-------7---    D|-------9----
A|---------7-    A|----------7-
E|-----------    E|------------

As meninas cheia de marra...

E|----------------------------------------------------------
B|----------------------------------------------------------
G|-11--9--11-----11------11-----11--9--11------11-----11----
D|-------------------7-------9---------------------9------7-  (varias vezes)
A|------------7-----------------------------7---------------
E|----------------------------------------------------------

E|--------------------------
B|--------------------------
G|--------------------------
D|-11--9--12--12--11--9-----
A|-----------------------12-
E|--------------------------
Acordes para:
    Colaboração e revisão:
    • bruno torres
    • Edward
    • Alex SK

    0 comentários

      mostrar mais comentários

      Conseguiu tocar?

      6tocaram0ainda não

      Grave um vídeo tocando Violeira de Apache e mande pra gente!

      00:00 / 00:00
      outros vídeos desta música
      repetirqualidadeautomática
      Outro vídeos desta música
        00:00 / 00:00
        automática
        OK