Cifra Club

Cirice

Ghost

Cifra: Drop-de-d (violão e guitarra)
tom: G
E|-------------------------------------------------------------------------------------------|
B|-------------------------------------------------------------------------------------------|
G|---------2-----1------------------------------------2-----1--------------------------------|
D|------0-----0-----2--3--2-1----------------------0-----0-----2--3--1-2---------------------|
A|-------------------------------------------------------------------------------------------|
D|---0----------------------------8-7-6---2-1---0----------------------------8-7-6---2-1-----|

E|----------------------------------------------------1-----0--------------------------------|
B|-------------------------------------------------------------------------------------------|
G|---------2-----1---------------------------------2-----2-----3-2-1-0-----------------------|
D|------0-----0-----2--3--2-1----------------------------------------------------------------|
A|-------------------------------------------------------------------------------------------|
D|---0----------------------------8-7-6---2-1---0-----------------------5-6-7--7-----1-------|

Intro 2 (00:47)


D|-------------------------------------------------------------------------------------------|
A|-------------------------------------------------------------------------------------------|
F|-------------------------------------------------------------------------------------------|
C|--------7----6--------------------------------------7----6---------------------------------|
G|---3/5----5--------7-7h8-7-6--------------------3/5---5------7-7/8-7--6--------------------|
D|--0--------------------------------8-7-6--2-1-0-----------------------------8-7-6--2-1-----|

                                  p.m.[...]                                      [...]

E|---------------------------------------------------1-----0---------------------------------|
B|-------------------------------------------------------------------------------------------|
G|---------2-----1--------------------------------2-----2-----3-2-1-0------------------------|
D|------0-----0-----2--3--2-1----------------------------------------------------------------|
A|---------------------------------------------------------------------1-4-5--4--------------|
D|---0----------------------------8-7-6---2-1---0--------------------------------------------|

                                  p.m.[...]   

Riff 1 (01:10)


E|-------------------------------------------------------------------------------------------|(2x)
B|-------------------------------------------------------------------------------------------|
G|-------------------------------------------------------------------------------------------|
D|------------------8---8--------------------------------8--8--------------------------------|
A|----1-0--/5-------6---6------------------1-0--/5-------6---6-------------------------------|
D|----1-0-----6-0------------8-7-6---------1-0-----6-0------------8-7-6----------------------|

E|-------------------------------------------------------------------------------------------|
B|-------------------------------------------------------------------------------------------|
G|-------------------------------------------------------------------------------------------|
D|-------------------------------------------------------------------------------------------|
A|---------1-5-/5-4~-/4-3~--1---1-----------1-5-/5-4~-/4-3~--1---1---------------------------|
D|---------1-5--------------1---1-----------1-5--------------1---1---------------------------|

E|-------------------------------------------------------------------------------------------|
B|-------------------------------------------------------------------------------------------|
G|-------------------------------------------------------------------------------------------|
D|------------------8---8--------------------------------8--8--------------------------------|
A|----1-0--/5-------6---6------------------1-0--/5-------6--6--------------------------------|
D|----1-0-----6-0------------8-7-6---------1-0-----6-0---------------------------------------|

RIFF 1 AGAIN (02:38)

CHORUS (03:35)


E|-------------------------------------------------------------------------------------------|(2x)
B|-------------------------------------------------------------------------------------------|
G|----------------------------------------------------------10-10-9-----8--------------------|
D|------8--7----8-5-----8-5-----3--------3/5-------8--7-----10-10-10-10-10-------------------|
A|----5---------------------------3----3---------7-------------------------------------------|
D|0-5---------5-------5-------5--------3--------5---------5-----------------1--1-1-1---------|

SOLO (04:01)


E|---------------------------10b11r10\6---6-8--10-13b15r-----15-17br-13----12b13r 12~----------|
B|--8--10b11r/6---6/8-----8-------------6----------------/15------------13-----------13b15-13~-|    
G|7-------------5------8-----------------------------------------------------------------------|
D|---------------------------------------------------------------------------------------------|
A|---------------------------------------------------------------------------------------------|
D|---------------------------------------------------------------------------------------------|

E|---------------------------------------------------------------------------------------------|
B|---------------------------------------------------------------------------------------------|    
G|--------------------5b7r----5-----------------------------------------------7----------------|
D|---5--8p5----5---8--------8---8-5~-------------------7-------7--8p7---7h8-----10~------------|
A|-----------8--------------------------6--8-10-6--8-10----8-10--------10----------------------|
D|---------------------------------------------------------------------------------------------|

E|---------------------------------------------------------------15-14-------------------------|
B|---------------------10-11~-11-10h11p10 8------14b----18b--15--------15-11-------------------|    
G|-------------8h10h12-----------------------10------12----------------------14-12-11brbrbrbrbr|
D|-7/8h10h12-----------------------------------------------------------------------------------|
A|---------------------------------------------------------------------------------------------|
D|---------------------------------------------------------------------------------------------|

RIFF SOLO (04:27)


E|---------------------------------------------------------------------------------------------|
B|---------------------------------------------------------------------------------------------|    
G|---------------------------------------------------------------------------------------------|
D|---------------8--8-----------------------------8---8-----------8---8------------------------|
A|-1-0--/5-------6---6--------------1-0--/5-------6---6-----------6---6------------------------|
D|-1-0-----6-0------------8-7-6-----1-0-----6-0------------3-2-1----------8-7-6----------------|



FINAL CHORUS (04:50)


E|-------------------------------------------------------------------------------------------|(2x)
B|-------------------------------------------------------------------------------------------|
G|----------------------------------------------------------8--8--9-----8--------------------|
D|------8--7----8--5---8--7-----3--------3/5-------8--7-----10-10-10-10-10-------------------|
A|----5---------------------------3----3---------5-------------------------------------------|
D|0-5---------5-------5-------5-------3---------5--------5------------------1--1-1-1---------|

E|-------------------------------------------------------------------------------------------|
B|-------------------------------------------------------------------------------------------|
G|----------------------------------------------------------10-10-9-----10-------------------|
D|------8--7----8--5---8--7-----3--------3/5-------8--7-----10-10-10-10-10--/xx--------------|
A|----7---------------------------3----3---------5--------------------------/xx--------------|
D|0-5----------5-----5-------5-------3---------5--------5-------------------/xx--------------|

E|-------------------------------------------------------------------------------------------|
B|-------------------------------------------------------------------------------------------|    
G|----------------------------------------------------------10-10-9---8---7----7---5---------|
D|-------8--7----8--5---8--7-----3--------3/5------8--7-----10-10-10--10-10---10---6---------|
A|-----5---------------------------3----3--------7-------------------------------------------|
D|---5---------5------5-------5----------------5---------5-----------------------------0-----|


00:00 / 00:00
Outros vídeos desta música
Repetir
Outros vídeos desta música
Composição de A Ghoul Writer
Colaboração e revisão:
  • Yan Mello
1.681 exibições
    • ½ Tom
    • A
    • Bb
    • B
    • C
    • Db
    • D
    • Eb
    • E
    • F
    • F#
    • G
    • Ab
  • Adicionar à lista

    0 comentários

    Ver todos os comentários

    Conseguiu tocar?

    0 Tocaram 0 Ainda não

    Grave um vídeo tocando Cirice e nos envie!

    Entre para oCifra Club PRO

    Tenha acesso a benefícios exclusivos no App e no Site

    • Chega de anúncios

    • Prioridade de compra em lançamentos

    • Mais recursos no app do Afinador

    • Atendimento Prioritário

    • Descontos nos produtos Cifra Club

    • Ajude a produzir mais conteúdo

    00:00 / 00:00

    Cifra Club Pro

    Aproveite o Cifra Club com benefícios exclusivos e sem anúncios
    Cifra Club Pro
    Aproveite o Cifra Club com benefícios exclusivos e sem anúncios
    OK