Cifra Club

Aprenda

Con Clavi Con Dio

Ghost

Cifra: Principal (violão e guitarra)
Tom: E
b = bend
br = bend e release
\/ = slide
~ = vibrato
 = Hârmonico natural
. = Palm mute
x = dead note
h = hammer on
p = pull off
... = tocar a mesma nota varias vezes

(Intro)

riff 1

E|--------------------------------------------|
B|--------------------------------------------|
G|--------------------------------------------|
D|--------------------------------------------| 3x
A|-3h5---5---3h5---5---3h5---5---3h5-5-5-5p3--|
D|-----0---0-----0---0-----0---0-------------6|

na 4ºx

E|--------------------------------------------|
B|--------------------------------------------|
G|--------------------------------------------|
D|----------------------1--------4------------|
A|-3h5---5---3h5---5----1--------4------------|
D|-----0---0-----0------1--------4------------|

riff 2

E|---------------------------------------------------|
B|---------------------------------------------------|
G|---------------------------------------------------| 4x
D|---------------------------------------------------|
A|-------------------------------------0h1-1-1-1p0---|
D|-1-0-0-1-0-0-1-0-0-1-0-0-1-0-0-1-0-0--------------2|
   . . . . . . . . . . . . . . . . . .

riff 3

E|-------------------------------------------------------------------|
B|-------------------------------------------------------------------|
G|-------------------------------------------------------------------|
D|-0-----------------------------------------------------------------|
A|-0-5...4...5...7...4...8...7...5...--------------------------------|
D|-0---------------------------------7...8...7...6...7...9...6.../7--|

E|--------------------------------------------|
B|--------------------------------------------|
G|--------------------------------------------|
D|--------------------------------------------|
A|--------8~~~~--3~~~~--~10~~~~~~~~-----------|
D|-12~~~~-------------------------------------|

riff 4

E|---------------------------------------------------------------------------------------------|
B|---------------------------------------------------------------------------------------------|
G|---------------------------------------------------------------------------------------------|
D|---------------------------------------------------------------------------------------------|
A|---------------------------------------------------------------------------------------------|
D|-8p7-7-8p7-7-8p7-7-8p7-7-8p7-7-8p7-7-8p7-7-8p7-7-8p7-7-8p7-7-8p7-7-8p7-7-8p7-7-8p7-7-8p7-7-7-|
   . . . . . . . . . . . . . . . . . . . . . . . . . . . . . . . . . . . . . . . . . . . . . .

riff 1

E|--------------------------------------------|
B|--------------------------------------------|
G|--------------------------------------------|
D|--------------------------------------------| 3x
A|-3h5---5---3h5---5---3h5---5---3h5-5-5-5p3--|
D|-----0---0-----0---0-----0---0-------------6|

na 4ºx

E|--------------------------------------------|
B|--------------------------------------------|
G|--------------------------------------------|
D|----------------------1--------4------------|
A|-3h5---5---3h5---5----1--------4------------|
D|-----0---0-----0------1--------4------------|

riff 2

E|---------------------------------------------------|
B|---------------------------------------------------|
G|---------------------------------------------------| 4x
D|---------------------------------------------------|
A|-------------------------------------0h1-1-1-1p0---|
D|-1-0-0-1-0-0-1-0-0-1-0-0-1-0-0-1-0-0-------------2-|
   . . . . . . . . . . . . . . . . . .

riff 3

E|-------------------------------------------------------------------|
B|-------------------------------------------------------------------|
G|-------------------------------------------------------------------|
D|-0-----------------------------------------------------------------|
A|-0-5...4...5...7...4...8...7...5...--------------------------------|
D|-0---------------------------------7...8...7...6...7...9...6.../7--|

E|--------------------------------------------|
B|--------------------------------------------|
G|--------------------------------------------|
D|--------------------------------------------|
A|--------8~~~~--3~~~~--~10~~~~~~~~-----------|
D|-12~~~~-------------------------------------|

ponte para o solo

E|--------------------|
B|--------------------|6x
G|--------------------|
D|--------------------|
A|--------------------|
D|-1-0-1-0-1-0-1-0----|
   . . . . . . . .

E|--------------------|
B|--------------------|
G|--------------------|6x
D|--------------------|
A|--------------------|
D|-3-4-3-4-3-4-3-4----|
   . . . . . . . .

E|------------------|---|
B|------------------|---|6x
G|------------------|---|
D|------------------|-0-|
A|------------------|-0-|
D|-1-0-1-0-1-0-1-0--|-0-|
   . . . . . . . .    no final da ponte


solo

parte 1

E|--------------------------------------------------------------15----11-----------|
B|-------15----13-15-------15---13-15-------15----13-15---13-15----11----11--15----|
G|----14----------------14---------------14----------------------------------------|x3
D|-12-------12-------12-------12------12-------12----------------------------------|
A|---------------------------------------------------------------------------------|
D|---------------------------------------------------------------------------------|

parte 2

E|---------13-12---------------------------------------------|
B|---------------11--10--8--9--7--10-------------------------|
G|-------------------------------------5-5-4-5-7-5---8b10~~~~|
D|-12~~~~----------------------------------------------------|
A|-----------------------------------------------------------|
D|-----------------------------------------------------------|

parte 3

E|---13~~~~---8~~~~-----~12~~~~~~~~----5~~~~p0---|
B|-----------------------------------------------|
G|-----------------------------------------------|
D|-----------------------------------------------|
A|-----------------------------------------------|
D|-----------------------------------------------|

riff 4 até o final

E|--------------------------------------------------------------------------------------------|
B|--------------------------------------------------------------------------------------------|
G|--------------------------------------------------------------------------------------------|
D|--------------------------------------------------------------------------------------------|
A|--------------------------------------------------------------------------------------------|
D|-8p7-7-8p7-7-8p7-7-8p7-7-8p7-7-8p7-7-8p7-7-8p7-7-8p7-7-8p7-7-8p7-7-8p7-7-8p7-7-8p7-7-8p7-7--|
   . . . . . . . . . . . . . . . . . . . . . . . . . . . . . . . . . . . . . . . . . . . . .
Composição de A Ghoul Writer
Colaboração e revisão:
  • Lucas
  • Lucas babics
9.167 exibições
    • ½ Tom
    • A
    • Bb
    • B
    • C
    • Db
    • D
    • Eb
    • E
    • F
    • F#
    • G
    • Ab
  • Adicionar à lista

    0 comentários

    Mostrar mais comentários

    Conseguiu tocar?

    11 Tocaram 0 Ainda não

    Grave um vídeo tocando Con Clavi Con Dio e mande pra gente!

    00:00 / 00:00
    outros vídeos desta música
    repetir qualidade Automático
    Outros vídeos desta música
    00:00 / 00:00
    Automático

    Cifra Club Pro

    Aproveite o Cifra Club com benefícios exclusivos e sem anúncios
    Cifra Club Pro
    Aproveite o Cifra Club com benefícios exclusivos e sem anúncios
    OK