Cifra Club

Aprenda

From The Pinnacle To The Pit

Ghost

Cifra: Principal (violão e guitarra)
tom: F (forma dos acordes no tom de G) Afinação: D G C F A D
INTRO SOLO, GUITAR ONE
D|--------------14-------------------------------------------------------------
A|-----------------------------------------------------------------------------
F|--------14-18----18-17--17-18-17-14--14----14-14-15-15-15-15----15-----------
C|--4-/16---------------------------------16-------------------14----14-15-16--
G|-----------------------------------------------------------------------------
D|-----------------------------------------------------------------------------


INTRO SOLO, GUITAR ONE
D|--------------14------------------------------------------------------------------
A|----------------------------------------------------------------------------------
F|--------14-18----18-17--17-18-17-14--14----14-14-15-15-15-15----15----------------
C|-----16---------------------------------16-------------------14----14-14-10^b10---
G|----------------------------------------------------------------------------------
D|----------------------------------------------------------------------------------


RHYTHM UNDER SOLO, GUITAR TWO, PLAY 4Xs
D|---------------------------------|| -------------------------------
A||:-------------------------------:|| -------------------------------
F|---------------------------------|| -------------------------------
C|---------------------------------|| -------------------------------
G||:-------------------------------:|| ---4-4-4-4-7-6-4-3-3-3---------
D|---2-2--5^2-2-5/6--6-6-0-6--0-1--|| -----------------------5--5-0--




VERSE, PLAY FOUR TIMES
D|---------------------------------||
A||:-------------------------------:||
F|---------------------------------||
C|---------------------------------||
G||:-------------------------------:||
D|---2-2--5^2-2-5/6--6-6-0-6--0-1--||



VERSE
D|-------------------------------------------------------------------------------------------
A|-------------------------------------------------------------------------------------------
F|-------------------------------------------------------------------------------------------
C|-------------------------------pm--4-----5-----4-----5--------------4-----5-----4-----5--8-
G|---4-4-4-4-7-6-4-3-3-3---------===---===---===---===---===-8-8--===---===---===---===----8-
D|-----------------------5--5-0--2-2---2-2---2-2---2-2---2-2-6-6--2-2---2-2---2-2---2-2----6-



VERSE
D|--------------------------------
A|--------------------------------
F|--------------------------------
C|--------------------------------
G|---4-4-4-4-7-6-4-3-3-3----------
D|-----------------------5--5-0---



VERSE, PLAY SIX TIMES
D|---------------------------------||
A||:-------------------------------:||
F|---------------------------------||
C|---------------------------------||
G||:-------------------------------:||
D|---2-2--5^2-2-5/6--6-6-0-6--0-1--||



VERSE
D|-------------------------------------------------------------------------------------------
A|-------------------------------------------------------------------------------------------
F|-------------------------------------------------------------------------------------------
C|-------------------------------pm--4-----5-----4-----5--------------4-----5-----4-----5--8-
G|---4-4-4-4-7-6-4-3-3-3---------===---===---===---===---===-8-8--===---===---===---===----8-
D|-----------------------5--5-0--2-2---2-2---2-2---2-2---2-2-6-6--2-2---2-2---2-2---2-2----6-


VERSE
D|--------------------------------
A|--------------------------------
F|--------------------------------
C|--------------------------------
G|---4-4-4-4-7-6-4-3-3-3----------
D|-----------------------5--5-0---




MIDDLE SOLO, GUITAR ONE
D|--------------14------------------------------------------------------------------
A|----------------------------------------------------------------------------------
F|--------14-18----18-17--17-18-17-14--14----14-14-15-15-15-15----15----------------
C|-----16---------------------------------16-------------------14----14-14-10^b10---
G|----------------------------------------------------------------------------------
D|----------------------------------------------------------------------------------


RHYTHM UNDER SOLO, GUITAR TWO, PLAY 2Xs
D|---------------------------------||
A||:-------------------------------:||
F|---------------------------------||
C|---------------------------------||
G||:-------------------------------:||
D|---2-2--5^2-2-5/6--6-6-0-6--0-1--||



VERSE, PLAY 4 TIMES
D|---------------------------------||
A||:-------------------------------:||
F|---------------------------------||
C|---------------------------------||
G||:-------------------------------:||
D|---2-2--5^2-2-5/6--6-6-0-6--0-1--||



VERSE
D|-------------------------------------------------------------------------------------------
A|-------------------------------------------------------------------------------------------
F|-------------------------------------------------------------------------------------------
C|-------------------------------pm--4-----5-----4-----5--------------4-----5-----4-----5--8-
G|---4-4-4-4-7-6-4-3-3-3---------===---===---===---===---===-8-8--===---===---===---===----8-
D|-----------------------5--5-0--2-2---2-2---2-2---2-2---2-2-6-6--2-2---2-2---2-2---2-2----6-



VERSE
D|--------------------------------
A|--------------------------------
F|--------------------------------
C|--------------------------------
G|---4-4-4-4-7-6-4-3-3-3----------
D|-----------------------5--5-0---



CHORUS
D|----------------------------------------------------------------------------------------
A|----------------------------------------------------------------------------------------
F|-7-7-7-7-7-7-7-----------2-2-2-2-2-2-2----------4-4-4-4-4-4-4--7------------------------
C|-7-7-7-7-7-7-7--4--Q.R.--2-2-2-2-2-2-2--2-Q.R.--4-4-4-4-4-4-4--7-Q.R.--4-4-4-4-4-Q.R.---
G|-5-5-5-5-5-5-5--4--------0-0-0-0-0-0-0--2-------2-2-2-2-2-2-2--5-------4-4-4-4-4--------
D|----------------2-----------------------0------------------------------2-2-2-2-2--------



CHORUS
D|-----------------------------------------------------------------------------------------
A|-----------------------------------------------------------------------------------------
F|-2-2-2-2-2---------------------7-7-7-7-7-7-7--------2-2-2-2-2-2-2-------4-4-4-4-4-4-4-7-Q
C|-2-2-2-2-2-Q.R.-2-2-2-2-2-Q.R.-7-7-7-7-7-7-7-4-Q.R.-2-2-2-2-2-2-2-2-Q.R-0-4-4-4-4-4-4-7-R
G|-0-0-0-0-0------2-2-2-2-2------5-5-5-5-5-5-5-4------0-0-0-0-0-0-0-2-----2-2-2-2-2-2-2-5--
D|----------------0-0-0-0-0--------------------2--------------------0----------------------



CHORUS
D|-------------------------------------------------------------------------------------------
A|-------------------------------------------------------------------------------------------
F|----------------2-2-2-2-2---------------------4-4-4-4-4---4-7-------------------9-9-9-9-9-Q
C|-4-4-4-4-4-Q.R.-2-2-2-2-2-Q.R.-2-2-2-2-2-Q.R.-4-4-4-4-4---4-7-Q.R.-4-4-4-4-4-QR-9-9-9-9-9-R
G|-4-4-4-4-4------0-0-0-0-0------2-2-2-2-2------2-2-2-2-2-0-2-5------4-4-4-4-4----7-7-7-7-7--
D|-2-2-2-2-2---------------------0-0-0-0-0---------------------------2-2-2-2-2----7-7-7-7-7--



CHORUS
D|---------------
A|---------------
F|---------------
C|-------4-4-REST
G|-------4-4-----
D|--14\--2-2-----



Tapping under chorus
D|--10t-5^2-10t-5^2--9t-5^2-9t-5^2-9t-5^2--9t-5^0-9t-5^0-9t-5^0--7t-5^0-7t-5^0-7t-5^0--------
A|-------------------------------------------------------------------------------------------
F|-------------------------------------------------------------------------------------------
C|-------------------------------------------------------------------------------------------
G|-------------------------------------------------------------------------------------------
D|-------------------------------------------------------------------------------------------



Tapping under chorus
D|--10t-7^2-10t-7^2--9t-5^2-9t-5^2-9t-5^2--9t-5^0-9t-5^0-9t-5^0--7t-5^0-7t-5^0-7t-5^0--------
A|-------------------------------------------------------------------------------------------
F|-------------------------------------------------------------------------------------------
C|-------------------------------------------------------------------------------------------
G|-------------------------------------------------------------------------------------------
D|-------------------------------------------------------------------------------------------




Tapping under chorus
D|--10t-7^2-10t-7^2--9t-5^2-9t-5^2-9t-5^2--9t-5^0-9t-5^0-9t-5^0--7t-5^0-7t-5^0-7t-5^0--------
A|-------------------------------------------------------------------------------------------
F|-------------------------------------------------------------------------------------------
C|-------------------------------------------------------------------------------------------
G|-------------------------------------------------------------------------------------------
D|-------------------------------------------------------------------------------------------




Tapping under chorus
D|--10t-7^2-10t-7^2--9t-5^2-9t-5^2-9t-5^2--9t-5^0-9t-5^0-9t-5^0--7t-5^0-7t-5^0-7t-5^0--------
A|-------------------------------------------------------------------------------------------
F|-------------------------------------------------------------------------------------------
C|-------------------------------------------------------------------------------------------
G|-------------------------------------------------------------------------------------------
D|-------------------------------------------------------------------------------------------



Tapping under chorus
D|--10t-7^2-10t-7^2--9t-5^2-9t-5^2-9t-5^2-9t-5^2-9t-5^2-9t-5^2-9t-5^2-9t-5^2-9t-5^2-
A|----------------------------------------------------------------------------------
F|----------------------------------------------------------------------------------
C|----------------------------------------------------------------------------------
G|----------------------------------------------------------------------------------
D|----------------------------------------------------------------------------------



Tapping under chorus
D|--7t-5^0-7t-5^0-7t-5^0-7t-5^0-7t-5^0--7t-3^0-7t-3^0-7t-3^0-7t-3^0---
A|--------------------------------------------------------------------
F|--------------------------------------------------------------------
C|--------------------------------------------------------------------
G|--------------------------------------------------------------------
D|--------------------------------------------------------------------



solo
D|--------------------------------------------------------------------
A|--------------------------------------------------------------------
F|------14----17^b17--17^b17-14---------------------------------------
C|--/16----16-------------------16-----*14^16*play-several-times-fast-
G|--------------------------------------------------------------------
D|--------------------------------------------------------------------



Solo repeat several Xs slow then very fast
D|--------------------||--14^13----------||-14-----14--------------------------------------
A||:--14^13-----------:||:-------14^13---:||----17b----17^14----14-----14-------------------
F|---------14^11------||-----------------||-----------------17----17-----16^14-------------
C|--------------------||-----------------||------------------------------------*16^14*-----
G||:------------------:||:---------------:||-----------------------------------play-several-
D|--------------------||-----------------||-----------------------------------times-fast---


PLAY FOUR TIMES UNDER SOLO
D|---------------------------------||
A||:-------------------------------:||
F|---------------------------------||
C|---------------------------------||
G||:-------------------------------:||
D|---2-2--5^2-2-5/6--6-6-0-6--0-1--||



RHYTHM UNDER SOLO
D|-------------------------------------------------------------------------------------------
A|-------------------------------------------------------------------------------------------
F|-------------------------------------------------------------------------------------------
C|-------------------------------pm--4-----5-----4-----5--------------4-----5-----4-----5--8-
G|---4-4-4-4-7-6-4-3-3-3---------===---===---===---===---===-8-8--===---===---===---===----8-
D|-----------------------5--5-0--2-2---2-2---2-2---2-2---2-2-6-6--2-2---2-2---2-2---2-2----6-



RHYTHM UNDER SOLO
D|--------------------------------
A|--------------------------------
F|--------------------------------
C|--------------------------------
G|---4-4-4-4-7-6-4-3-3-3----------
D|-----------------------5--5-0---


VERSE, PLAY 8 TIMES
D|---------------------------------||
A||:-------------------------------:||
F|---------------------------------||
C|---------------------------------||
G||:-------------------------------:||
D|---2-2--5^2-2-5/6--6-6-0-6--0-1--||


VERSE
D|-------------------------------------------------------------------------------------------
A|-------------------------------------------------------------------------------------------
F|-------------------------------------------------------------------------------------------
C|-------------------------------pm--4-----5-----4-----5--------------4-----5-----4-----5--8-
G|---4-4-4-4-7-6-4-3-3-3---------===---===---===---===---===-8-8--===---===---===---===----8-
D|-----------------------5--5-0--2-2---2-2---2-2---2-2---2-2-6-6--2-2---2-2---2-2---2-2----6-



VERSE
D|--------------------------------
A|--------------------------------
F|--------------------------------
C|--------------------------------
G|---4-4-4-4-7-6-4-3-3-3----------
D|-----------------------5--5-0---



VERSE END, GUITAR ONE
D|--------------------------------------------------------------------
A|------------5-------------------------------------------------------
F|----6-6-6-6---8-6-5-5-5---------------------------------------------
C|------------------------7-7-----------------------------------------
G|----------------------------7-9\------------------------------------
D|--------------------------------------------------------------------



VERSE END, GUITAR TWO
D|--------------------------------------------------------------------
A|--------------------------------------------------------------------
F|--------------------------------------------------------------------
C|------------6-------------------------------------------------------
G|---/7-7-7-7---9-7-6-6-6---------------------------------------------
D|------------------------9-9-8-9\------------------------------------



CHORUS/OUTRO
D|-------------------------------------------------------------------------------------------
A|-------------------------------------------------------------------------------------------
F|---------------2-2-2-2-2-----------------7-7-7-7-7-7-7------2-2-2-2-2-2-2------------------
C|--4-4-4-4-4-QR-2-2-2-2-2-QR-2-2-2-2-2-QR-7-7-7-7-7-7-7-4-QR-2-2-2-2-2-2-2-2-QR-------------
G|--4-4-4-4-4----0-0-0-0-0----2-2-2-2-2----5-5-5-5-5-5-5-4----0-0-0-0-0-0-0-2----------------
D|--2-2-2-2-2-----------------0-0-0-0-0------------------2------------------0----------------



CHORUS/OUTRO
D|-------------------------------------------------------------------------------------------
A|-------------------------------------------------------------------------------------------
F|-4-4-4-4-4-4-4-7-----------------2-2-2-2-2-----------------7-7-7-7-7-7-7-------------------
C|-4-4-4-4-4-4-4-7-QR-4-4-4-4-4-QR-2-2-2-2-2-QR-2-2-2-2-2-QR-7-7-7-7-7-7-7-4-QR--------------
G|-2-2-2-2-2-2-2-5----4-4-4-4-4----0-0-0-0-0----2-2-2-2-2----5-5-5-5-5-5-5-4-----------------
D|--------------------2-2-2-2-2-----------------0-0-0-0-0------------------2-----------------



CHORUS/OUTRO
D|-------------------------------------------------------------------------------------------
A|-------------------------------------------------------------------------------------------
F|-2-2-2-2-2-2-2------4-4-4-4-4-4-4-7-----------------2-2-2-2-2------------------------------
C|-2-2-2-2-2-2-2-2-QR-4-4-4-4-4-4-4-7-QR-4-4-4-4-4-QR-2-2-2-2-2-QR-2-2-2-2-2-QR--------------
G|-0-0-0-0-0-0-0-2----2-2-2-2-2-2-2-5----4-4-4-4-4----0-0-0-0-0----2-2-2-2-2-----------------
D|---------------0-----------------------2-2-2-2-2-----------------0-0-0-0-0-----------------



CHORUS/OUTRO
D|-------------------------------------------------------------------------------------------
A|-------------------------------------------------------------------------------------------
F|-4-4-4-4-4---4-7-----------------9-9-9-9-9-------------------------------------------------
C|-4-4-4-4-4---4-7-QR-4-4-4-4-4-QR-9-9-9-9-9-QR----------------------------------------------
G|-2-2-2-2-2-0-2-5----4-4-4-4-4----7-7-7-7-7-------------------------------------------------
D|--------------------2-2-2-2-2----7-7-7-7-7-------14\END------------------------------------




Tapping under chorus
D|--10t-5^2-10t-5^2--9t-5^2-9t-5^2-9t-5^2--9t-5^0-9t-5^0-9t-5^0--7t-5^0-7t-5^0-7t-5^0--------
A|-------------------------------------------------------------------------------------------
F|-------------------------------------------------------------------------------------------
C|-------------------------------------------------------------------------------------------
G|-------------------------------------------------------------------------------------------
D|-------------------------------------------------------------------------------------------


Tapping under chorus
D|--10t-5^2-10t-5^2--9t-5^2-9t-5^2-9t-5^2--9t-5^0-9t-5^0-9t-5^0--7t-5^0-7t-5^0-7t-5^0--------
A|-------------------------------------------------------------------------------------------
F|-------------------------------------------------------------------------------------------
C|-------------------------------------------------------------------------------------------
G|-------------------------------------------------------------------------------------------
D|-------------------------------------------------------------------------------------------


Tapping under chorus
D|--10t-7^2-10t-7^2--9t-5^2-9t-5^2-9t-5^2--9t-5^0-9t-5^0-9t-5^0--7t-5^0-7t-5^0-7t-5^0--------
A|-------------------------------------------------------------------------------------------
F|-------------------------------------------------------------------------------------------
C|-------------------------------------------------------------------------------------------
G|-------------------------------------------------------------------------------------------
D|-------------------------------------------------------------------------------------------


Tapping under chorus
D|--10t-7^2-10t-7^2--9t-5^2-9t-5^2-9t-5^2--9t-5^0-9t-5^0-9t-5^0--7t-5^0-7t-5^0-7t-5^0--------
A|-------------------------------------------------------------------------------------------
F|-------------------------------------------------------------------------------------------
C|-------------------------------------------------------------------------------------------
G|-------------------------------------------------------------------------------------------
D|-------------------------------------------------------------------------------------------


Tapping under chorus
D|--10t-7^2-10t-7^2--9t-5^2-9t-5^2-9t-5^2--9t-5^0-9t-5^0-9t-5^0--7t-5^0-7t-5^0-7t-5^0--------
A|-------------------------------------------------------------------------------------------
F|-------------------------------------------------------------------------------------------
C|-------------------------------------------------------------------------------------------
G|-------------------------------------------------------------------------------------------
D|-------------------------------------------------------------------------------------------


Tapping under chorus
D|--10t-7^2-10t-7^2--9t-5^2-9t-5^2-9t-5^2-9t-5^2-9t-5^2-9t-5^2-9t-5^2-9t-5^2-9t-5^2-
A|----------------------------------------------------------------------------------
F|----------------------------------------------------------------------------------
C|----------------------------------------------------------------------------------
G|----------------------------------------------------------------------------------
D|----------------------------------------------------------------------------------


Tapping under chorus
D|--7t-5^0-7t-5^0-7t-5^0-7t-5^0-7t-5^0--7t-3^0-7t-3^0-7t-3^0-7t-3^0---
A|--------------------------------------------------------------------
F|--------------------------------------------------------------------
C|--------------------------------------------------------------------
G|--------------------------------------------------------------------
D|--------------------------------------------------------------------
Composição de Ghost
Colaboração e revisão:
  • Willian Izeki
1.952 exibições
    • ½ Tom
    • A
    • Bb
    • B
    • C
    • Db
    • D
    • Eb
    • E
    • F
    • F#
    • G
    • Ab
  • Adicionar à lista

    0 comentários

    Ver todos os comentários

    Conseguiu tocar?

    0 Tocaram 0 Ainda não

    Grave um vídeo tocando From The Pinnacle To The Pit e nos envie!

    00:00 / 00:00
    outros vídeos desta música
    repetir qualidade Automático
    Outros vídeos desta música
    00:00 / 00:00
    Automático

    Cifra Club Pro

    Aproveite o Cifra Club com benefícios exclusivos e sem anúncios
    Cifra Club Pro
    Aproveite o Cifra Club com benefícios exclusivos e sem anúncios
    OK